ISO-10303-21;
HEADER;
/* Generated by software containing ST-Developer
 * from STEP Tools, Inc. (www.steptools.com) 
 */
/* OPTION: using custom schema-name function */

FILE_DESCRIPTION(
/* description */ (''),
/* implementation_level */ '2;1');

FILE_NAME(
/* name */ '08 1200 XXX XXX 001_02-Erdungsh\X\FClse mit Dichtring.stp',

/* time_stamp */ '2020-08-20T09:47:48+02:00',
/* author */ (''),
/* organization */ (''),
/* preprocessor_version */ 'ST-DEVELOPER v16',
/* originating_system */ 'SIEMENS PLM Software NX 11.0',
/* authorisation */ '');

FILE_SCHEMA (('AUTOMOTIVE_DESIGN { 1 0 10303 214 3 1 1 1 }'));
ENDSEC;

DATA;
#10=PROPERTY_DEFINITION_REPRESENTATION(#14,#12);
#11=PROPERTY_DEFINITION_REPRESENTATION(#15,#13);
#12=REPRESENTATION('',(#16),#287);
#13=REPRESENTATION('',(#17),#287);
#14=PROPERTY_DEFINITION('pmi validation property','',#21);
#15=PROPERTY_DEFINITION('pmi validation property','',#21);
#16=VALUE_REPRESENTATION_ITEM('number of annotations',COUNT_MEASURE(0.));
#17=VALUE_REPRESENTATION_ITEM('number of views',COUNT_MEASURE(0.));
#18=SHAPE_REPRESENTATION_RELATIONSHIP('None',
'relationship between rhen17007E34coxe-None and rhen17007E34coxe-None',
#30,#19);
#19=ADVANCED_BREP_SHAPE_REPRESENTATION('rhen17007E34coxe-None',(#40),#287);
#20=SHAPE_DEFINITION_REPRESENTATION(#21,#30);
#21=PRODUCT_DEFINITION_SHAPE('','',#22);
#22=PRODUCT_DEFINITION(' ','',#24,#23);
#23=PRODUCT_DEFINITION_CONTEXT('part definition',#29,'design');
#24=PRODUCT_DEFINITION_FORMATION_WITH_SPECIFIED_SOURCE(' ',' ',#26,
 .NOT_KNOWN.);
#25=PRODUCT_RELATED_PRODUCT_CATEGORY('part','',(#26));
#26=PRODUCT('rhen17007E34coxe','rhen17007E34coxe',' ',(#27));
#27=PRODUCT_CONTEXT(' ',#29,'mechanical');
#28=APPLICATION_PROTOCOL_DEFINITION('international standard',
'automotive_design',2010,#29);
#29=APPLICATION_CONTEXT(
'core data for automotive mechanical design processes');
#30=SHAPE_REPRESENTATION('rhen17007E34coxe-None',(#174),#287);
#31=PRESENTATION_LAYER_ASSIGNMENT('2','Layer 2',(#40));
#32=STYLED_ITEM('',(#33),#40);
#33=PRESENTATION_STYLE_ASSIGNMENT((#34));
#34=SURFACE_STYLE_USAGE(.BOTH.,#35);
#35=SURFACE_SIDE_STYLE('',(#36));
#36=SURFACE_STYLE_FILL_AREA(#37);
#37=FILL_AREA_STYLE('',(#38));
#38=FILL_AREA_STYLE_COLOUR('',#39);
#39=COLOUR_RGB('Lime',0.8,1.,0.2);
#40=MANIFOLD_SOLID_BREP('',#41);
#41=CLOSED_SHELL('',(#50,#51,#52,#53,#54,#55,#56,#57,#58,#59,#60,#61));
#42=TOROIDAL_SURFACE('',#196,1.4,0.1);
#43=TOROIDAL_SURFACE('',#197,2.25,1.);
#44=CONICAL_SURFACE('',#195,1.5,15.0000000000001);
#45=CONICAL_SURFACE('',#198,1.3,45.0000000000001);
#46=PLANE('',#180);
#47=PLANE('',#182);
#48=PLANE('',#185);
#49=PLANE('',#191);
#50=ADVANCED_FACE('',(#66,#67),#62,.F.);
#51=ADVANCED_FACE('',(#68,#69),#46,.F.);
#52=ADVANCED_FACE('',(#70,#71),#47,.F.);
#53=ADVANCED_FACE('',(#72,#73),#63,.T.);
#54=ADVANCED_FACE('',(#74,#75),#48,.F.);
#55=ADVANCED_FACE('',(#76,#77),#64,.F.);
#56=ADVANCED_FACE('',(#78,#79),#49,.F.);
#57=ADVANCED_FACE('',(#80,#81),#65,.T.);
#58=ADVANCED_FACE('',(#82,#83),#44,.T.);
#59=ADVANCED_FACE('',(#84,#85),#42,.T.);
#60=ADVANCED_FACE('',(#86,#87),#43,.T.);
#61=ADVANCED_FACE('',(#88,#89),#45,.F.);
#62=CYLINDRICAL_SURFACE('',#177,4.);
#63=CYLINDRICAL_SURFACE('',#183,13.5);
#64=CYLINDRICAL_SURFACE('',#188,1.25);
#65=CYLINDRICAL_SURFACE('',#193,1.5);
#66=FACE_BOUND('',#90,.T.);
#67=FACE_BOUND('',#91,.T.);
#68=FACE_BOUND('',#92,.T.);
#69=FACE_BOUND('',#93,.T.);
#70=FACE_BOUND('',#94,.T.);
#71=FACE_BOUND('',#95,.T.);
#72=FACE_BOUND('',#96,.T.);
#73=FACE_BOUND('',#97,.T.);
#74=FACE_BOUND('',#98,.T.);
#75=FACE_BOUND('',#99,.T.);
#76=FACE_BOUND('',#100,.T.);
#77=FACE_BOUND('',#101,.T.);
#78=FACE_BOUND('',#102,.T.);
#79=FACE_BOUND('',#103,.T.);
#80=FACE_BOUND('',#104,.T.);
#81=FACE_BOUND('',#105,.T.);
#82=FACE_BOUND('',#106,.T.);
#83=FACE_BOUND('',#107,.T.);
#84=FACE_BOUND('',#108,.T.);
#85=FACE_BOUND('',#109,.T.);
#86=FACE_BOUND('',#110,.T.);
#87=FACE_BOUND('',#111,.T.);
#88=FACE_BOUND('',#112,.T.);
#89=FACE_BOUND('',#113,.T.);
#90=EDGE_LOOP('',(#114));
#91=EDGE_LOOP('',(#115));
#92=EDGE_LOOP('',(#116));
#93=EDGE_LOOP('',(#117));
#94=EDGE_LOOP('',(#118));
#95=EDGE_LOOP('',(#119));
#96=EDGE_LOOP('',(#120));
#97=EDGE_LOOP('',(#121));
#98=EDGE_LOOP('',(#122));
#99=EDGE_LOOP('',(#123));
#100=EDGE_LOOP('',(#124));
#101=EDGE_LOOP('',(#125));
#102=EDGE_LOOP('',(#126));
#103=EDGE_LOOP('',(#127));
#104=EDGE_LOOP('',(#128));
#105=EDGE_LOOP('',(#129));
#106=EDGE_LOOP('',(#130));
#107=EDGE_LOOP('',(#131));
#108=EDGE_LOOP('',(#132));
#109=EDGE_LOOP('',(#133));
#110=EDGE_LOOP('',(#134));
#111=EDGE_LOOP('',(#135));
#112=EDGE_LOOP('',(#136));
#113=EDGE_LOOP('',(#137));
#114=ORIENTED_EDGE('',*,*,#150,.F.);
#115=ORIENTED_EDGE('',*,*,#151,.F.);
#116=ORIENTED_EDGE('',*,*,#152,.T.);
#117=ORIENTED_EDGE('',*,*,#153,.T.);
#118=ORIENTED_EDGE('',*,*,#154,.F.);
#119=ORIENTED_EDGE('',*,*,#150,.T.);
#120=ORIENTED_EDGE('',*,*,#152,.F.);
#121=ORIENTED_EDGE('',*,*,#154,.T.);
#122=ORIENTED_EDGE('',*,*,#155,.T.);
#123=ORIENTED_EDGE('',*,*,#151,.T.);
#124=ORIENTED_EDGE('',*,*,#156,.T.);
#125=ORIENTED_EDGE('',*,*,#157,.T.);
#126=ORIENTED_EDGE('',*,*,#158,.T.);
#127=ORIENTED_EDGE('',*,*,#159,.T.);
#128=ORIENTED_EDGE('',*,*,#160,.T.);
#129=ORIENTED_EDGE('',*,*,#155,.F.);
#130=ORIENTED_EDGE('',*,*,#161,.T.);
#131=ORIENTED_EDGE('',*,*,#159,.F.);
#132=ORIENTED_EDGE('',*,*,#161,.F.);
#133=ORIENTED_EDGE('',*,*,#160,.F.);
#134=ORIENTED_EDGE('',*,*,#153,.F.);
#135=ORIENTED_EDGE('',*,*,#157,.F.);
#136=ORIENTED_EDGE('',*,*,#156,.F.);
#137=ORIENTED_EDGE('',*,*,#158,.F.);
#138=VERTEX_POINT('',#251);
#139=VERTEX_POINT('',#253);
#140=VERTEX_POINT('',#256);
#141=VERTEX_POINT('',#258);
#142=VERTEX_POINT('',#261);
#143=VERTEX_POINT('',#265);
#144=VERTEX_POINT('',#268);
#145=VERTEX_POINT('',#270);
#146=VERTEX_POINT('',#273);
#147=VERTEX_POINT('',#275);
#148=VERTEX_POINT('',#278);
#149=VERTEX_POINT('',#281);
#150=EDGE_CURVE('',#138,#138,#162,.T.);
#151=EDGE_CURVE('',#139,#139,#163,.T.);
#152=EDGE_CURVE('',#140,#140,#164,.T.);
#153=EDGE_CURVE('',#141,#141,#165,.T.);
#154=EDGE_CURVE('',#142,#142,#166,.T.);
#155=EDGE_CURVE('',#143,#143,#167,.T.);
#156=EDGE_CURVE('',#144,#144,#168,.T.);
#157=EDGE_CURVE('',#145,#145,#169,.T.);
#158=EDGE_CURVE('',#146,#146,#170,.T.);
#159=EDGE_CURVE('',#147,#147,#171,.T.);
#160=EDGE_CURVE('',#148,#148,#172,.T.);
#161=EDGE_CURVE('',#149,#149,#173,.T.);
#162=CIRCLE('',#175,4.);
#163=CIRCLE('',#176,4.);
#164=CIRCLE('',#178,13.5);
#165=CIRCLE('',#179,2.25);
#166=CIRCLE('',#181,13.5);
#167=CIRCLE('',#184,1.5);
#168=CIRCLE('',#186,1.25);
#169=CIRCLE('',#187,1.25);
#170=CIRCLE('',#189,1.3);
#171=CIRCLE('',#190,1.35);
#172=CIRCLE('',#192,1.5);
#173=CIRCLE('',#194,1.49659258262891);
#174=AXIS2_PLACEMENT_3D('',#249,#199,#200);
#175=AXIS2_PLACEMENT_3D('',#250,#201,#202);
#176=AXIS2_PLACEMENT_3D('',#252,#203,#204);
#177=AXIS2_PLACEMENT_3D('',#254,#205,#206);
#178=AXIS2_PLACEMENT_3D('',#255,#207,#208);
#179=AXIS2_PLACEMENT_3D('',#257,#209,#210);
#180=AXIS2_PLACEMENT_3D('',#259,#211,#212);
#181=AXIS2_PLACEMENT_3D('',#260,#213,#214);
#182=AXIS2_PLACEMENT_3D('',#262,#215,#216);
#183=AXIS2_PLACEMENT_3D('',#263,#217,#218);
#184=AXIS2_PLACEMENT_3D('',#264,#219,#220);
#185=AXIS2_PLACEMENT_3D('',#266,#221,#222);
#186=AXIS2_PLACEMENT_3D('',#267,#223,#224);
#187=AXIS2_PLACEMENT_3D('',#269,#225,#226);
#188=AXIS2_PLACEMENT_3D('',#271,#227,#228);
#189=AXIS2_PLACEMENT_3D('',#272,#229,#230);
#190=AXIS2_PLACEMENT_3D('',#274,#231,#232);
#191=AXIS2_PLACEMENT_3D('',#276,#233,#234);
#192=AXIS2_PLACEMENT_3D('',#277,#235,#236);
#193=AXIS2_PLACEMENT_3D('',#279,#237,#238);
#194=AXIS2_PLACEMENT_3D('',#280,#239,#240);
#195=AXIS2_PLACEMENT_3D('',#282,#241,#242);
#196=AXIS2_PLACEMENT_3D('',#283,#243,#244);
#197=AXIS2_PLACEMENT_3D('',#284,#245,#246);
#198=AXIS2_PLACEMENT_3D('',#285,#247,#248);
#199=DIRECTION('',(0.,0.,1.));
#200=DIRECTION('',(1.,0.,0.));
#201=DIRECTION('',(-1.,0.,0.));
#202=DIRECTION('',(0.,0.,1.));
#203=DIRECTION('',(1.,0.,0.));
#204=DIRECTION('',(0.,0.,1.));
#205=DIRECTION('',(-1.,0.,0.));
#206=DIRECTION('',(0.,0.,1.));
#207=DIRECTION('',(-1.,0.,0.));
#208=DIRECTION('',(0.,0.,1.));
#209=DIRECTION('',(1.,0.,0.));
#210=DIRECTION('',(0.,0.,-1.));
#211=DIRECTION('',(1.,0.,0.));
#212=DIRECTION('',(0.,0.,-1.));
#213=DIRECTION('',(-1.,0.,0.));
#214=DIRECTION('',(0.,0.,1.));
#215=DIRECTION('',(-1.,0.,0.));
#216=DIRECTION('',(0.,0.,1.));
#217=DIRECTION('',(-1.,0.,0.));
#218=DIRECTION('',(0.,0.,1.));
#219=DIRECTION('',(-1.,0.,0.));
#220=DIRECTION('',(0.,0.,1.));
#221=DIRECTION('',(-1.,0.,0.));
#222=DIRECTION('',(0.,0.,1.));
#223=DIRECTION('',(1.,0.,0.));
#224=DIRECTION('',(0.,0.,1.));
#225=DIRECTION('',(-1.,0.,0.));
#226=DIRECTION('',(0.,0.,-1.));
#227=DIRECTION('',(-1.,0.,0.));
#228=DIRECTION('',(0.,0.,1.));
#229=DIRECTION('',(-1.,0.,0.));
#230=DIRECTION('',(0.,0.,1.));
#231=DIRECTION('',(1.,0.,0.));
#232=DIRECTION('',(0.,0.,1.));
#233=DIRECTION('',(-1.,0.,0.));
#234=DIRECTION('',(0.,0.,1.));
#235=DIRECTION('',(-1.,0.,0.));
#236=DIRECTION('',(0.,0.,-1.));
#237=DIRECTION('',(-1.,0.,0.));
#238=DIRECTION('',(0.,0.,1.));
#239=DIRECTION('',(1.,0.,0.));
#240=DIRECTION('',(0.,0.,1.));
#241=DIRECTION('',(-1.,0.,0.));
#242=DIRECTION('',(1.93141066075405E-17,0.,1.));
#243=DIRECTION('',(1.,0.,0.));
#244=DIRECTION('',(0.,0.,-1.));
#245=DIRECTION('',(1.,0.,0.));
#246=DIRECTION('',(0.,0.,-1.));
#247=DIRECTION('',(1.,0.,0.));
#248=DIRECTION('',(6.41014367433752E-17,0.,-1.));
#249=CARTESIAN_POINT('',(0.,0.,0.));
#250=CARTESIAN_POINT('',(10.,0.,0.));
#251=CARTESIAN_POINT('',(10.,0.,4.));
#252=CARTESIAN_POINT('',(0.999999999999999,0.,0.));
#253=CARTESIAN_POINT('',(0.999999999999999,0.,4.));
#254=CARTESIAN_POINT('',(0.,0.,0.));
#255=CARTESIAN_POINT('',(0.,0.,0.));
#256=CARTESIAN_POINT('',(0.,0.,13.5));
#257=CARTESIAN_POINT('',(6.50521303491303E-16,0.,0.));
#258=CARTESIAN_POINT('',(6.50521303491303E-16,0.,-2.25));
#259=CARTESIAN_POINT('',(0.,0.,13.5));
#260=CARTESIAN_POINT('',(10.,0.,0.));
#261=CARTESIAN_POINT('',(10.,0.,13.5));
#262=CARTESIAN_POINT('',(10.,0.,4.));
#263=CARTESIAN_POINT('',(0.,0.,0.));
#264=CARTESIAN_POINT('',(0.999999999999999,0.,0.));
#265=CARTESIAN_POINT('',(0.999999999999999,0.,1.5));
#266=CARTESIAN_POINT('',(0.999999999999999,0.,1.5));
#267=CARTESIAN_POINT('',(11.45,0.,0.));
#268=CARTESIAN_POINT('',(11.45,0.,1.25));
#269=CARTESIAN_POINT('',(1.,0.,0.));
#270=CARTESIAN_POINT('',(1.,0.,-1.25));
#271=CARTESIAN_POINT('',(0.,0.,0.));
#272=CARTESIAN_POINT('',(11.5,0.,0.));
#273=CARTESIAN_POINT('',(11.5,0.,1.3));
#274=CARTESIAN_POINT('',(11.5,0.,0.));
#275=CARTESIAN_POINT('',(11.5,0.,1.35));
#276=CARTESIAN_POINT('',(11.5,0.,1.25));
#277=CARTESIAN_POINT('',(10.9270271291059,0.,0.));
#278=CARTESIAN_POINT('',(10.9270271291059,0.,-1.5));
#279=CARTESIAN_POINT('',(0.,0.,0.));
#280=CARTESIAN_POINT('',(10.9529090336162,0.,0.));
#281=CARTESIAN_POINT('',(10.9529090336162,0.,1.49659258262891));
#282=CARTESIAN_POINT('',(10.9401923788647,0.,0.));
#283=CARTESIAN_POINT('',(10.9270271291059,0.,0.));
#284=CARTESIAN_POINT('',(1.,0.,0.));
#285=CARTESIAN_POINT('',(11.5,0.,0.));
#286=MECHANICAL_DESIGN_GEOMETRIC_PRESENTATION_REPRESENTATION('',(#32),#287);
#287=(
GEOMETRIC_REPRESENTATION_CONTEXT(3)
GLOBAL_UNCERTAINTY_ASSIGNED_CONTEXT((#288))
GLOBAL_UNIT_ASSIGNED_CONTEXT((#294,#290,#289))
REPRESENTATION_CONTEXT(
'08 1200 XXX XXX 001_02-Erdungsh\X\FClse mit Dichtring',
'TOP_LEVEL_ASSEMBLY_PART')
);
#288=UNCERTAINTY_MEASURE_WITH_UNIT(LENGTH_MEASURE(2.E-5),#294,
'DISTANCE_ACCURACY_VALUE','Maximum Tolerance applied to model');
#289=(
NAMED_UNIT(*)
SI_UNIT($,.STERADIAN.)
SOLID_ANGLE_UNIT()
);
#290=(
CONVERSION_BASED_UNIT('DEGREE',#292)
NAMED_UNIT(#291)
PLANE_ANGLE_UNIT()
);
#291=DIMENSIONAL_EXPONENTS(0.,0.,0.,0.,0.,0.,0.);
#292=PLANE_ANGLE_MEASURE_WITH_UNIT(PLANE_ANGLE_MEASURE(0.0174532925),#293);
#293=(
NAMED_UNIT(*)
PLANE_ANGLE_UNIT()
SI_UNIT($,.RADIAN.)
);
#294=(
LENGTH_UNIT()
NAMED_UNIT(*)
SI_UNIT(.MILLI.,.METRE.)
);
ENDSEC;
END-ISO-10303-21;
