ISO-10303-21;
HEADER;
/* Generated by software containing ST-Developer
 * from STEP Tools, Inc. (www.steptools.com) 
 */
/* OPTION: using custom schema-name function */

FILE_DESCRIPTION(
/* description */ (''),
/* implementation_level */ '2;1');

FILE_NAME(
/* name */ '08-0045-000-001-001_01.stp',
/* time_stamp */ '2023-02-13T11:46:21+01:00',
/* author */ (''),
/* organization */ (''),
/* preprocessor_version */ 'ST-DEVELOPER v16',
/* originating_system */ 'SIEMENS PLM Software NX 11.0',
/* authorisation */ '');

FILE_SCHEMA (('AUTOMOTIVE_DESIGN { 1 0 10303 214 3 1 1 1 }'));
ENDSEC;

DATA;
#10=CONSTRUCTIVE_GEOMETRY_REPRESENTATION_RELATIONSHIP(
'supplemental geometry','',#34,#11);
#11=CONSTRUCTIVE_GEOMETRY_REPRESENTATION('supplemental geometry',(#371),
#606);
#12=GEOMETRICALLY_BOUNDED_WIREFRAME_SHAPE_REPRESENTATION(
'cgoe1F603DF40a6e-None',(#35),#606);
#13=PROPERTY_DEFINITION_REPRESENTATION(#17,#15);
#14=PROPERTY_DEFINITION_REPRESENTATION(#18,#16);
#15=REPRESENTATION('',(#19),#606);
#16=REPRESENTATION('',(#20),#606);
#17=PROPERTY_DEFINITION('pmi validation property','',#25);
#18=PROPERTY_DEFINITION('pmi validation property','',#25);
#19=VALUE_REPRESENTATION_ITEM('number of annotations',COUNT_MEASURE(0.));
#20=VALUE_REPRESENTATION_ITEM('number of views',COUNT_MEASURE(0.));
#21=SHAPE_REPRESENTATION_RELATIONSHIP('None',
'relationship between cgoe1F603DF40a6e-None and cgoe1F603DF40a6e-None',
#34,#23);
#22=SHAPE_REPRESENTATION_RELATIONSHIP('None',
'relationship between cgoe1F603DF40a6e-None and cgoe1F603DF40a6e-None',
#34,#12);
#23=ADVANCED_BREP_SHAPE_REPRESENTATION('cgoe1F603DF40a6e-None',(#41),#606);
#24=SHAPE_DEFINITION_REPRESENTATION(#25,#34);
#25=PRODUCT_DEFINITION_SHAPE('','',#26);
#26=PRODUCT_DEFINITION(' ','',#28,#27);
#27=PRODUCT_DEFINITION_CONTEXT('part definition',#33,'design');
#28=PRODUCT_DEFINITION_FORMATION_WITH_SPECIFIED_SOURCE(' ',' ',#30,
 .NOT_KNOWN.);
#29=PRODUCT_RELATED_PRODUCT_CATEGORY('part','',(#30));
#30=PRODUCT('cgoe1F603DF40a6e','cgoe1F603DF40a6e',' ',(#31));
#31=PRODUCT_CONTEXT(' ',#33,'mechanical');
#32=APPLICATION_PROTOCOL_DEFINITION('international standard',
'automotive_design',2010,#33);
#33=APPLICATION_CONTEXT(
'core data for automotive mechanical design processes');
#34=SHAPE_REPRESENTATION('cgoe1F603DF40a6e-None',(#370),#606);
#35=GEOMETRIC_CURVE_SET('None',(#515));
#36=SURFACE_STYLE_USAGE(.BOTH.,#37);
#37=SURFACE_SIDE_STYLE('',(#38));
#38=SURFACE_STYLE_FILL_AREA(#39);
#39=FILL_AREA_STYLE('',(#40));
#40=FILL_AREA_STYLE_COLOUR('',#369);
#41=MANIFOLD_SOLID_BREP('',#42);
#42=CLOSED_SHELL('',(#100,#101,#102,#103,#104,#105,#106,#107,#108,#109,
#110,#111,#112,#113,#114,#115,#116,#117));
#43=CYLINDRICAL_SURFACE('',#387,10.5);
#44=CYLINDRICAL_SURFACE('',#389,1.6);
#45=CYLINDRICAL_SURFACE('',#391,1.6);
#46=CYLINDRICAL_SURFACE('',#393,1.6);
#47=CYLINDRICAL_SURFACE('',#395,1.6);
#48=CYLINDRICAL_SURFACE('',#397,3.);
#49=CYLINDRICAL_SURFACE('',#399,3.);
#50=CYLINDRICAL_SURFACE('',#401,3.);
#51=CYLINDRICAL_SURFACE('',#403,3.);
#52=CYLINDRICAL_SURFACE('',#410,9.05);
#53=CYLINDRICAL_SURFACE('',#411,2.);
#54=FACE_BOUND('',#139,.T.);
#55=FACE_BOUND('',#140,.T.);
#56=FACE_BOUND('',#141,.T.);
#57=FACE_BOUND('',#142,.T.);
#58=FACE_BOUND('',#143,.T.);
#59=FACE_BOUND('',#144,.T.);
#60=FACE_BOUND('',#145,.T.);
#61=FACE_BOUND('',#146,.T.);
#62=FACE_BOUND('',#147,.T.);
#63=FACE_BOUND('',#148,.T.);
#64=FACE_BOUND('',#149,.T.);
#65=FACE_BOUND('',#150,.T.);
#66=FACE_BOUND('',#151,.T.);
#67=FACE_BOUND('',#152,.T.);
#68=FACE_BOUND('',#153,.T.);
#69=FACE_BOUND('',#154,.T.);
#70=FACE_BOUND('',#159,.T.);
#71=FACE_BOUND('',#160,.T.);
#72=FACE_BOUND('',#161,.T.);
#73=FACE_BOUND('',#162,.T.);
#74=FACE_BOUND('',#163,.T.);
#75=FACE_BOUND('',#164,.T.);
#76=FACE_BOUND('',#165,.T.);
#77=FACE_BOUND('',#166,.T.);
#78=CIRCLE('',#376,1.6);
#79=CIRCLE('',#377,1.6);
#80=CIRCLE('',#378,1.6);
#81=CIRCLE('',#379,1.6);
#82=CIRCLE('',#380,10.5);
#83=CIRCLE('',#381,3.);
#84=CIRCLE('',#382,3.);
#85=CIRCLE('',#383,3.);
#86=CIRCLE('',#384,3.);
#87=CIRCLE('',#386,10.5);
#88=CIRCLE('',#388,1.6);
#89=CIRCLE('',#390,1.6);
#90=CIRCLE('',#392,1.6);
#91=CIRCLE('',#394,1.6);
#92=CIRCLE('',#396,3.);
#93=CIRCLE('',#398,3.);
#94=CIRCLE('',#400,3.);
#95=CIRCLE('',#402,3.);
#96=CIRCLE('',#404,9.05);
#97=CIRCLE('',#405,2.);
#98=CIRCLE('',#407,9.05);
#99=CIRCLE('',#408,2.);
#100=ADVANCED_FACE('',(#125),#118,.T.);
#101=ADVANCED_FACE('',(#126),#119,.T.);
#102=ADVANCED_FACE('',(#127),#120,.T.);
#103=ADVANCED_FACE('',(#128),#121,.T.);
#104=ADVANCED_FACE('',(#54,#55,#56,#57,#58,#59),#122,.F.);
#105=ADVANCED_FACE('',(#60,#61),#43,.F.);
#106=ADVANCED_FACE('',(#62,#63),#44,.F.);
#107=ADVANCED_FACE('',(#64,#65),#45,.F.);
#108=ADVANCED_FACE('',(#66,#67),#46,.F.);
#109=ADVANCED_FACE('',(#68,#69),#47,.F.);
#110=ADVANCED_FACE('',(#129),#48,.T.);
#111=ADVANCED_FACE('',(#130),#49,.T.);
#112=ADVANCED_FACE('',(#131),#50,.T.);
#113=ADVANCED_FACE('',(#132),#51,.T.);
#114=ADVANCED_FACE('',(#70,#71),#123,.F.);
#115=ADVANCED_FACE('',(#72,#73,#74,#75,#76,#77),#124,.T.);
#116=ADVANCED_FACE('',(#133),#52,.F.);
#117=ADVANCED_FACE('',(#134),#53,.T.);
#118=PLANE('',#372);
#119=PLANE('',#373);
#120=PLANE('',#374);
#121=PLANE('',#375);
#122=PLANE('',#385);
#123=PLANE('',#406);
#124=PLANE('',#409);
#125=FACE_OUTER_BOUND('',#135,.T.);
#126=FACE_OUTER_BOUND('',#136,.T.);
#127=FACE_OUTER_BOUND('',#137,.T.);
#128=FACE_OUTER_BOUND('',#138,.T.);
#129=FACE_OUTER_BOUND('',#155,.T.);
#130=FACE_OUTER_BOUND('',#156,.T.);
#131=FACE_OUTER_BOUND('',#157,.T.);
#132=FACE_OUTER_BOUND('',#158,.T.);
#133=FACE_OUTER_BOUND('',#167,.T.);
#134=FACE_OUTER_BOUND('',#168,.T.);
#135=EDGE_LOOP('',(#169,#170,#171,#172));
#136=EDGE_LOOP('',(#173,#174,#175,#176));
#137=EDGE_LOOP('',(#177,#178,#179,#180));
#138=EDGE_LOOP('',(#181,#182,#183,#184));
#139=EDGE_LOOP('',(#185));
#140=EDGE_LOOP('',(#186));
#141=EDGE_LOOP('',(#187));
#142=EDGE_LOOP('',(#188));
#143=EDGE_LOOP('',(#189));
#144=EDGE_LOOP('',(#190,#191,#192,#193,#194,#195,#196,#197));
#145=EDGE_LOOP('',(#198));
#146=EDGE_LOOP('',(#199));
#147=EDGE_LOOP('',(#200));
#148=EDGE_LOOP('',(#201));
#149=EDGE_LOOP('',(#202));
#150=EDGE_LOOP('',(#203));
#151=EDGE_LOOP('',(#204));
#152=EDGE_LOOP('',(#205));
#153=EDGE_LOOP('',(#206));
#154=EDGE_LOOP('',(#207));
#155=EDGE_LOOP('',(#208,#209,#210,#211));
#156=EDGE_LOOP('',(#212,#213,#214,#215));
#157=EDGE_LOOP('',(#216,#217,#218,#219));
#158=EDGE_LOOP('',(#220,#221,#222,#223));
#159=EDGE_LOOP('',(#224,#225));
#160=EDGE_LOOP('',(#226));
#161=EDGE_LOOP('',(#227));
#162=EDGE_LOOP('',(#228));
#163=EDGE_LOOP('',(#229));
#164=EDGE_LOOP('',(#230));
#165=EDGE_LOOP('',(#231,#232));
#166=EDGE_LOOP('',(#233,#234,#235,#236,#237,#238,#239,#240));
#167=EDGE_LOOP('',(#241,#242,#243,#244));
#168=EDGE_LOOP('',(#245,#246,#247,#248));
#169=ORIENTED_EDGE('',*,*,#279,.T.);
#170=ORIENTED_EDGE('',*,*,#280,.F.);
#171=ORIENTED_EDGE('',*,*,#281,.T.);
#172=ORIENTED_EDGE('',*,*,#282,.T.);
#173=ORIENTED_EDGE('',*,*,#283,.T.);
#174=ORIENTED_EDGE('',*,*,#284,.F.);
#175=ORIENTED_EDGE('',*,*,#285,.T.);
#176=ORIENTED_EDGE('',*,*,#286,.T.);
#177=ORIENTED_EDGE('',*,*,#287,.T.);
#178=ORIENTED_EDGE('',*,*,#288,.T.);
#179=ORIENTED_EDGE('',*,*,#289,.F.);
#180=ORIENTED_EDGE('',*,*,#290,.T.);
#181=ORIENTED_EDGE('',*,*,#291,.T.);
#182=ORIENTED_EDGE('',*,*,#292,.F.);
#183=ORIENTED_EDGE('',*,*,#293,.T.);
#184=ORIENTED_EDGE('',*,*,#294,.T.);
#185=ORIENTED_EDGE('',*,*,#295,.F.);
#186=ORIENTED_EDGE('',*,*,#296,.F.);
#187=ORIENTED_EDGE('',*,*,#297,.F.);
#188=ORIENTED_EDGE('',*,*,#298,.F.);
#189=ORIENTED_EDGE('',*,*,#299,.F.);
#190=ORIENTED_EDGE('',*,*,#294,.F.);
#191=ORIENTED_EDGE('',*,*,#300,.T.);
#192=ORIENTED_EDGE('',*,*,#287,.F.);
#193=ORIENTED_EDGE('',*,*,#301,.T.);
#194=ORIENTED_EDGE('',*,*,#286,.F.);
#195=ORIENTED_EDGE('',*,*,#302,.T.);
#196=ORIENTED_EDGE('',*,*,#282,.F.);
#197=ORIENTED_EDGE('',*,*,#303,.T.);
#198=ORIENTED_EDGE('',*,*,#299,.T.);
#199=ORIENTED_EDGE('',*,*,#304,.F.);
#200=ORIENTED_EDGE('',*,*,#298,.T.);
#201=ORIENTED_EDGE('',*,*,#305,.F.);
#202=ORIENTED_EDGE('',*,*,#297,.T.);
#203=ORIENTED_EDGE('',*,*,#306,.F.);
#204=ORIENTED_EDGE('',*,*,#296,.T.);
#205=ORIENTED_EDGE('',*,*,#307,.F.);
#206=ORIENTED_EDGE('',*,*,#295,.T.);
#207=ORIENTED_EDGE('',*,*,#308,.F.);
#208=ORIENTED_EDGE('',*,*,#300,.F.);
#209=ORIENTED_EDGE('',*,*,#293,.F.);
#210=ORIENTED_EDGE('',*,*,#309,.F.);
#211=ORIENTED_EDGE('',*,*,#288,.F.);
#212=ORIENTED_EDGE('',*,*,#303,.F.);
#213=ORIENTED_EDGE('',*,*,#281,.F.);
#214=ORIENTED_EDGE('',*,*,#310,.F.);
#215=ORIENTED_EDGE('',*,*,#291,.F.);
#216=ORIENTED_EDGE('',*,*,#302,.F.);
#217=ORIENTED_EDGE('',*,*,#285,.F.);
#218=ORIENTED_EDGE('',*,*,#311,.F.);
#219=ORIENTED_EDGE('',*,*,#279,.F.);
#220=ORIENTED_EDGE('',*,*,#301,.F.);
#221=ORIENTED_EDGE('',*,*,#290,.F.);
#222=ORIENTED_EDGE('',*,*,#312,.F.);
#223=ORIENTED_EDGE('',*,*,#283,.F.);
#224=ORIENTED_EDGE('',*,*,#313,.F.);
#225=ORIENTED_EDGE('',*,*,#314,.F.);
#226=ORIENTED_EDGE('',*,*,#304,.T.);
#227=ORIENTED_EDGE('',*,*,#308,.T.);
#228=ORIENTED_EDGE('',*,*,#307,.T.);
#229=ORIENTED_EDGE('',*,*,#306,.T.);
#230=ORIENTED_EDGE('',*,*,#305,.T.);
#231=ORIENTED_EDGE('',*,*,#315,.T.);
#232=ORIENTED_EDGE('',*,*,#316,.T.);
#233=ORIENTED_EDGE('',*,*,#289,.T.);
#234=ORIENTED_EDGE('',*,*,#309,.T.);
#235=ORIENTED_EDGE('',*,*,#292,.T.);
#236=ORIENTED_EDGE('',*,*,#310,.T.);
#237=ORIENTED_EDGE('',*,*,#280,.T.);
#238=ORIENTED_EDGE('',*,*,#311,.T.);
#239=ORIENTED_EDGE('',*,*,#284,.T.);
#240=ORIENTED_EDGE('',*,*,#312,.T.);
#241=ORIENTED_EDGE('',*,*,#315,.F.);
#242=ORIENTED_EDGE('',*,*,#317,.T.);
#243=ORIENTED_EDGE('',*,*,#313,.T.);
#244=ORIENTED_EDGE('',*,*,#318,.T.);
#245=ORIENTED_EDGE('',*,*,#316,.F.);
#246=ORIENTED_EDGE('',*,*,#318,.F.);
#247=ORIENTED_EDGE('',*,*,#314,.T.);
#248=ORIENTED_EDGE('',*,*,#317,.F.);
#249=VERTEX_POINT('',#518);
#250=VERTEX_POINT('',#519);
#251=VERTEX_POINT('',#521);
#252=VERTEX_POINT('',#523);
#253=VERTEX_POINT('',#527);
#254=VERTEX_POINT('',#528);
#255=VERTEX_POINT('',#530);
#256=VERTEX_POINT('',#532);
#257=VERTEX_POINT('',#536);
#258=VERTEX_POINT('',#537);
#259=VERTEX_POINT('',#539);
#260=VERTEX_POINT('',#541);
#261=VERTEX_POINT('',#545);
#262=VERTEX_POINT('',#546);
#263=VERTEX_POINT('',#548);
#264=VERTEX_POINT('',#550);
#265=VERTEX_POINT('',#554);
#266=VERTEX_POINT('',#556);
#267=VERTEX_POINT('',#558);
#268=VERTEX_POINT('',#560);
#269=VERTEX_POINT('',#562);
#270=VERTEX_POINT('',#569);
#271=VERTEX_POINT('',#572);
#272=VERTEX_POINT('',#575);
#273=VERTEX_POINT('',#578);
#274=VERTEX_POINT('',#581);
#275=VERTEX_POINT('',#592);
#276=VERTEX_POINT('',#593);
#277=VERTEX_POINT('',#597);
#278=VERTEX_POINT('',#598);
#279=EDGE_CURVE('',#249,#250,#319,.T.);
#280=EDGE_CURVE('',#251,#250,#320,.T.);
#281=EDGE_CURVE('',#251,#252,#321,.T.);
#282=EDGE_CURVE('',#252,#249,#322,.T.);
#283=EDGE_CURVE('',#253,#254,#323,.T.);
#284=EDGE_CURVE('',#255,#254,#324,.T.);
#285=EDGE_CURVE('',#255,#256,#325,.T.);
#286=EDGE_CURVE('',#256,#253,#326,.T.);
#287=EDGE_CURVE('',#257,#258,#327,.T.);
#288=EDGE_CURVE('',#258,#259,#328,.T.);
#289=EDGE_CURVE('',#260,#259,#329,.T.);
#290=EDGE_CURVE('',#260,#257,#330,.T.);
#291=EDGE_CURVE('',#261,#262,#331,.T.);
#292=EDGE_CURVE('',#263,#262,#332,.T.);
#293=EDGE_CURVE('',#263,#264,#333,.T.);
#294=EDGE_CURVE('',#264,#261,#334,.T.);
#295=EDGE_CURVE('',#265,#265,#78,.T.);
#296=EDGE_CURVE('',#266,#266,#79,.T.);
#297=EDGE_CURVE('',#267,#267,#80,.T.);
#298=EDGE_CURVE('',#268,#268,#81,.T.);
#299=EDGE_CURVE('',#269,#269,#82,.T.);
#300=EDGE_CURVE('',#264,#258,#83,.T.);
#301=EDGE_CURVE('',#257,#253,#84,.T.);
#302=EDGE_CURVE('',#256,#249,#85,.T.);
#303=EDGE_CURVE('',#252,#261,#86,.T.);
#304=EDGE_CURVE('',#270,#270,#87,.T.);
#305=EDGE_CURVE('',#271,#271,#88,.T.);
#306=EDGE_CURVE('',#272,#272,#89,.T.);
#307=EDGE_CURVE('',#273,#273,#90,.T.);
#308=EDGE_CURVE('',#274,#274,#91,.T.);
#309=EDGE_CURVE('',#259,#263,#92,.T.);
#310=EDGE_CURVE('',#262,#251,#93,.T.);
#311=EDGE_CURVE('',#250,#255,#94,.T.);
#312=EDGE_CURVE('',#254,#260,#95,.T.);
#313=EDGE_CURVE('',#275,#276,#96,.T.);
#314=EDGE_CURVE('',#276,#275,#97,.T.);
#315=EDGE_CURVE('',#277,#278,#98,.T.);
#316=EDGE_CURVE('',#278,#277,#99,.T.);
#317=EDGE_CURVE('',#277,#275,#335,.T.);
#318=EDGE_CURVE('',#276,#278,#336,.T.);
#319=LINE('',#517,#337);
#320=LINE('',#520,#338);
#321=LINE('',#522,#339);
#322=LINE('',#524,#340);
#323=LINE('',#526,#341);
#324=LINE('',#529,#342);
#325=LINE('',#531,#343);
#326=LINE('',#533,#344);
#327=LINE('',#535,#345);
#328=LINE('',#538,#346);
#329=LINE('',#540,#347);
#330=LINE('',#542,#348);
#331=LINE('',#544,#349);
#332=LINE('',#547,#350);
#333=LINE('',#549,#351);
#334=LINE('',#551,#352);
#335=LINE('',#601,#353);
#336=LINE('',#602,#354);
#337=VECTOR('',#416,1.);
#338=VECTOR('',#417,1.);
#339=VECTOR('',#418,1.);
#340=VECTOR('',#419,1.);
#341=VECTOR('',#422,1.);
#342=VECTOR('',#423,1.);
#343=VECTOR('',#424,1.);
#344=VECTOR('',#425,1.);
#345=VECTOR('',#428,1.);
#346=VECTOR('',#429,1.);
#347=VECTOR('',#430,1.);
#348=VECTOR('',#431,1.);
#349=VECTOR('',#434,1.);
#350=VECTOR('',#435,1.);
#351=VECTOR('',#436,1.);
#352=VECTOR('',#437,1.);
#353=VECTOR('',#508,1.);
#354=VECTOR('',#509,1.);
#355=CURVE_STYLE('',#356,POSITIVE_LENGTH_MEASURE(0.18),#368);
#356=DRAUGHTING_PRE_DEFINED_CURVE_FONT('continuous');
#357=PRESENTATION_LAYER_ASSIGNMENT('100','Layer 100',(#515,#371));
#358=PRESENTATION_LAYER_ASSIGNMENT('1','Layer 1',(#41));
#359=STYLED_ITEM('',(#362),#515);
#360=STYLED_ITEM('',(#363),#371);
#361=STYLED_ITEM('',(#364),#41);
#362=PRESENTATION_STYLE_ASSIGNMENT((#365));
#363=PRESENTATION_STYLE_ASSIGNMENT((#355));
#364=PRESENTATION_STYLE_ASSIGNMENT((#36));
#365=POINT_STYLE('',#366,POSITIVE_LENGTH_MEASURE(3.),#367);
#366=PRE_DEFINED_POINT_MARKER_SYMBOL('plus');
#367=COLOUR_RGB('Pale Green',0.843137254901961,1.,0.780392156862745);
#368=COLOUR_RGB('Deep Lemon',1.,0.909788662546731,0.384298466468299);
#369=COLOUR_RGB('Lime',0.8,1.,0.2);
#370=AXIS2_PLACEMENT_3D('',#514,#412,#413);
#371=AXIS2_PLACEMENT_3D('CSYS_K_SYSTEM',#516,#414,#415);
#372=AXIS2_PLACEMENT_3D('',#525,#420,#421);
#373=AXIS2_PLACEMENT_3D('',#534,#426,#427);
#374=AXIS2_PLACEMENT_3D('',#543,#432,#433);
#375=AXIS2_PLACEMENT_3D('',#552,#438,#439);
#376=AXIS2_PLACEMENT_3D('',#553,#440,#441);
#377=AXIS2_PLACEMENT_3D('',#555,#442,#443);
#378=AXIS2_PLACEMENT_3D('',#557,#444,#445);
#379=AXIS2_PLACEMENT_3D('',#559,#446,#447);
#380=AXIS2_PLACEMENT_3D('',#561,#448,#449);
#381=AXIS2_PLACEMENT_3D('',#563,#450,#451);
#382=AXIS2_PLACEMENT_3D('',#564,#452,#453);
#383=AXIS2_PLACEMENT_3D('',#565,#454,#455);
#384=AXIS2_PLACEMENT_3D('',#566,#456,#457);
#385=AXIS2_PLACEMENT_3D('',#567,#458,#459);
#386=AXIS2_PLACEMENT_3D('',#568,#460,#461);
#387=AXIS2_PLACEMENT_3D('',#570,#462,#463);
#388=AXIS2_PLACEMENT_3D('',#571,#464,#465);
#389=AXIS2_PLACEMENT_3D('',#573,#466,#467);
#390=AXIS2_PLACEMENT_3D('',#574,#468,#469);
#391=AXIS2_PLACEMENT_3D('',#576,#470,#471);
#392=AXIS2_PLACEMENT_3D('',#577,#472,#473);
#393=AXIS2_PLACEMENT_3D('',#579,#474,#475);
#394=AXIS2_PLACEMENT_3D('',#580,#476,#477);
#395=AXIS2_PLACEMENT_3D('',#582,#478,#479);
#396=AXIS2_PLACEMENT_3D('',#583,#480,#481);
#397=AXIS2_PLACEMENT_3D('',#584,#482,#483);
#398=AXIS2_PLACEMENT_3D('',#585,#484,#485);
#399=AXIS2_PLACEMENT_3D('',#586,#486,#487);
#400=AXIS2_PLACEMENT_3D('',#587,#488,#489);
#401=AXIS2_PLACEMENT_3D('',#588,#490,#491);
#402=AXIS2_PLACEMENT_3D('',#589,#492,#493);
#403=AXIS2_PLACEMENT_3D('',#590,#494,#495);
#404=AXIS2_PLACEMENT_3D('',#591,#496,#497);
#405=AXIS2_PLACEMENT_3D('',#594,#498,#499);
#406=AXIS2_PLACEMENT_3D('',#595,#500,#501);
#407=AXIS2_PLACEMENT_3D('',#596,#502,#503);
#408=AXIS2_PLACEMENT_3D('',#599,#504,#505);
#409=AXIS2_PLACEMENT_3D('',#600,#506,#507);
#410=AXIS2_PLACEMENT_3D('',#603,#510,#511);
#411=AXIS2_PLACEMENT_3D('',#604,#512,#513);
#412=DIRECTION('',(0.,0.,1.));
#413=DIRECTION('',(1.,0.,0.));
#414=DIRECTION('',(0.,0.,1.));
#415=DIRECTION('',(1.,0.,0.));
#416=DIRECTION('',(-1.,0.,0.));
#417=DIRECTION('',(0.,1.13424227275407E-15,1.));
#418=DIRECTION('',(1.,0.,0.));
#419=DIRECTION('',(0.,1.13424227275407E-15,1.));
#420=DIRECTION('',(0.,-1.,1.13424227275407E-15));
#421=DIRECTION('',(0.,-1.13450915328883E-15,-1.));
#422=DIRECTION('',(-1.,0.,0.));
#423=DIRECTION('',(0.,1.,-1.40112280751973E-15));
#424=DIRECTION('',(1.,0.,0.));
#425=DIRECTION('',(0.,1.,-1.40112280751973E-15));
#426=DIRECTION('',(0.,1.40112280751973E-15,1.));
#427=DIRECTION('',(0.,-1.,1.40165656858926E-15));
#428=DIRECTION('',(0.,0.,-1.));
#429=DIRECTION('',(-1.,0.,0.));
#430=DIRECTION('',(0.,0.,-1.));
#431=DIRECTION('',(1.,0.,0.));
#432=DIRECTION('',(0.,1.,0.));
#433=DIRECTION('',(0.,0.,1.));
#434=DIRECTION('',(-1.,0.,0.));
#435=DIRECTION('',(0.,-1.,1.46784294121114E-15));
#436=DIRECTION('',(1.,0.,0.));
#437=DIRECTION('',(0.,-1.,1.46784294121114E-15));
#438=DIRECTION('',(0.,-1.46784294121114E-15,-1.));
#439=DIRECTION('',(0.,1.,-1.46757606067638E-15));
#440=DIRECTION('',(1.,0.,0.));
#441=DIRECTION('',(0.,-1.,0.));
#442=DIRECTION('',(1.,0.,0.));
#443=DIRECTION('',(0.,0.,1.));
#444=DIRECTION('',(1.,0.,0.));
#445=DIRECTION('',(0.,1.,0.));
#446=DIRECTION('',(1.,0.,0.));
#447=DIRECTION('',(0.,0.,-1.));
#448=DIRECTION('',(1.,0.,0.));
#449=DIRECTION('',(0.,0.,-1.));
#450=DIRECTION('',(1.,0.,0.));
#451=DIRECTION('',(0.,0.,1.));
#452=DIRECTION('',(1.,0.,0.));
#453=DIRECTION('',(0.,0.,1.));
#454=DIRECTION('',(1.,0.,0.));
#455=DIRECTION('',(0.,0.,1.));
#456=DIRECTION('',(1.,0.,0.));
#457=DIRECTION('',(0.,0.,1.));
#458=DIRECTION('',(-1.,0.,0.));
#459=DIRECTION('',(0.,0.,1.));
#460=DIRECTION('',(1.,0.,0.));
#461=DIRECTION('',(0.,0.,-1.));
#462=DIRECTION('',(1.,0.,0.));
#463=DIRECTION('',(0.,0.,-1.));
#464=DIRECTION('',(1.,0.,0.));
#465=DIRECTION('',(0.,0.,-1.));
#466=DIRECTION('',(1.,0.,0.));
#467=DIRECTION('',(0.,0.,-1.));
#468=DIRECTION('',(1.,0.,0.));
#469=DIRECTION('',(0.,1.,0.));
#470=DIRECTION('',(1.,0.,0.));
#471=DIRECTION('',(0.,1.,0.));
#472=DIRECTION('',(1.,0.,0.));
#473=DIRECTION('',(0.,0.,1.));
#474=DIRECTION('',(1.,0.,0.));
#475=DIRECTION('',(0.,0.,1.));
#476=DIRECTION('',(1.,0.,0.));
#477=DIRECTION('',(0.,-1.,0.));
#478=DIRECTION('',(1.,0.,0.));
#479=DIRECTION('',(0.,-1.,0.));
#480=DIRECTION('',(-1.,0.,0.));
#481=DIRECTION('',(0.,0.,1.));
#482=DIRECTION('',(-1.,0.,0.));
#483=DIRECTION('',(0.,0.,1.));
#484=DIRECTION('',(-1.,0.,0.));
#485=DIRECTION('',(0.,0.,1.));
#486=DIRECTION('',(-1.,0.,0.));
#487=DIRECTION('',(0.,0.,1.));
#488=DIRECTION('',(-1.,0.,0.));
#489=DIRECTION('',(0.,0.,1.));
#490=DIRECTION('',(-1.,0.,0.));
#491=DIRECTION('',(0.,0.,1.));
#492=DIRECTION('',(-1.,0.,0.));
#493=DIRECTION('',(0.,0.,1.));
#494=DIRECTION('',(-1.,0.,0.));
#495=DIRECTION('',(0.,0.,1.));
#496=DIRECTION('',(1.,0.,0.));
#497=DIRECTION('',(0.,0.,-1.));
#498=DIRECTION('',(-1.,0.,0.));
#499=DIRECTION('',(0.,1.,0.));
#500=DIRECTION('',(-1.,0.,0.));
#501=DIRECTION('',(0.,0.,1.));
#502=DIRECTION('',(1.,0.,0.));
#503=DIRECTION('',(0.,0.,-1.));
#504=DIRECTION('',(-1.,0.,0.));
#505=DIRECTION('',(0.,1.,0.));
#506=DIRECTION('',(-1.,0.,0.));
#507=DIRECTION('',(0.,0.,1.));
#508=DIRECTION('',(1.,0.,0.));
#509=DIRECTION('',(-1.,0.,0.));
#510=DIRECTION('',(1.,0.,0.));
#511=DIRECTION('',(0.,0.,-1.));
#512=DIRECTION('',(-1.,0.,0.));
#513=DIRECTION('',(0.,0.,1.));
#514=CARTESIAN_POINT('',(0.,0.,0.));
#515=CARTESIAN_POINT('CSYS_PUNKT',(0.,0.,0.));
#516=CARTESIAN_POINT('',(0.,0.,0.));
#517=CARTESIAN_POINT('',(2.,-13.,10.));
#518=CARTESIAN_POINT('',(2.,-13.,10.));
#519=CARTESIAN_POINT('',(0.,-13.,10.));
#520=CARTESIAN_POINT('',(0.,-13.,-13.));
#521=CARTESIAN_POINT('',(0.,-13.,-10.));
#522=CARTESIAN_POINT('',(2.,-13.,-10.));
#523=CARTESIAN_POINT('',(2.,-13.,-10.));
#524=CARTESIAN_POINT('',(2.,-13.,-13.));
#525=CARTESIAN_POINT('',(2.,-13.,-13.));
#526=CARTESIAN_POINT('',(2.,10.,13.));
#527=CARTESIAN_POINT('',(2.,10.,13.));
#528=CARTESIAN_POINT('',(0.,10.,13.));
#529=CARTESIAN_POINT('',(0.,-13.,13.));
#530=CARTESIAN_POINT('',(0.,-9.99999999999999,13.));
#531=CARTESIAN_POINT('',(2.,-9.99999999999999,13.));
#532=CARTESIAN_POINT('',(2.,-9.99999999999999,13.));
#533=CARTESIAN_POINT('',(2.,-13.,13.));
#534=CARTESIAN_POINT('',(2.,-13.,13.));
#535=CARTESIAN_POINT('',(2.,13.,13.));
#536=CARTESIAN_POINT('',(2.,13.,9.99999999999998));
#537=CARTESIAN_POINT('',(2.,13.,-10.));
#538=CARTESIAN_POINT('',(2.,13.,-10.));
#539=CARTESIAN_POINT('',(0.,13.,-10.));
#540=CARTESIAN_POINT('',(0.,13.,13.));
#541=CARTESIAN_POINT('',(0.,13.,9.99999999999998));
#542=CARTESIAN_POINT('',(2.,13.,9.99999999999998));
#543=CARTESIAN_POINT('',(2.,13.,13.));
#544=CARTESIAN_POINT('',(2.,-10.,-13.));
#545=CARTESIAN_POINT('',(2.,-10.,-13.));
#546=CARTESIAN_POINT('',(0.,-10.,-13.));
#547=CARTESIAN_POINT('',(0.,13.,-13.));
#548=CARTESIAN_POINT('',(0.,10.,-13.));
#549=CARTESIAN_POINT('',(2.,10.,-13.));
#550=CARTESIAN_POINT('',(2.,10.,-13.));
#551=CARTESIAN_POINT('',(2.,13.,-13.));
#552=CARTESIAN_POINT('',(2.,13.,-13.));
#553=CARTESIAN_POINT('',(2.,9.99999999999998,10.));
#554=CARTESIAN_POINT('',(2.,8.39999999999998,10.));
#555=CARTESIAN_POINT('',(2.,10.,-9.99999999999998));
#556=CARTESIAN_POINT('',(2.,10.,-8.39999999999998));
#557=CARTESIAN_POINT('',(2.,-9.99999999999998,-10.));
#558=CARTESIAN_POINT('',(2.,-8.39999999999998,-10.));
#559=CARTESIAN_POINT('',(2.,-10.,9.99999999999998));
#560=CARTESIAN_POINT('',(2.,-10.,8.39999999999998));
#561=CARTESIAN_POINT('',(2.,0.,0.));
#562=CARTESIAN_POINT('',(2.,0.,-10.5));
#563=CARTESIAN_POINT('',(2.,10.,-10.));
#564=CARTESIAN_POINT('',(2.,10.,9.99999999999998));
#565=CARTESIAN_POINT('',(2.,-10.,10.));
#566=CARTESIAN_POINT('',(2.,-10.,-10.));
#567=CARTESIAN_POINT('',(2.,-13.,13.));
#568=CARTESIAN_POINT('',(1.,0.,0.));
#569=CARTESIAN_POINT('',(1.,0.,-10.5));
#570=CARTESIAN_POINT('',(1.,0.,0.));
#571=CARTESIAN_POINT('',(0.,-10.,9.99999999999998));
#572=CARTESIAN_POINT('',(0.,-10.,8.39999999999998));
#573=CARTESIAN_POINT('',(1.,-10.,9.99999999999998));
#574=CARTESIAN_POINT('',(0.,-9.99999999999998,-10.));
#575=CARTESIAN_POINT('',(0.,-8.39999999999998,-10.));
#576=CARTESIAN_POINT('',(1.,-9.99999999999998,-10.));
#577=CARTESIAN_POINT('',(0.,10.,-9.99999999999998));
#578=CARTESIAN_POINT('',(0.,10.,-8.39999999999998));
#579=CARTESIAN_POINT('',(1.,10.,-9.99999999999998));
#580=CARTESIAN_POINT('',(0.,9.99999999999998,10.));
#581=CARTESIAN_POINT('',(0.,8.39999999999998,10.));
#582=CARTESIAN_POINT('',(1.,9.99999999999998,10.));
#583=CARTESIAN_POINT('',(0.,10.,-10.));
#584=CARTESIAN_POINT('',(2.,10.,-10.));
#585=CARTESIAN_POINT('',(0.,-10.,-10.));
#586=CARTESIAN_POINT('',(2.,-10.,-10.));
#587=CARTESIAN_POINT('',(0.,-10.,10.));
#588=CARTESIAN_POINT('',(2.,-10.,10.));
#589=CARTESIAN_POINT('',(0.,10.,9.99999999999998));
#590=CARTESIAN_POINT('',(2.,10.,9.99999999999998));
#591=CARTESIAN_POINT('',(1.,0.,0.));
#592=CARTESIAN_POINT('',(1.,1.37254663940084,-8.94531249999547));
#593=CARTESIAN_POINT('',(1.,-1.37254663940951,-8.94531250000363));
#594=CARTESIAN_POINT('',(1.,-1.56125112837913E-14,-10.4));
#595=CARTESIAN_POINT('',(1.,-13.,13.));
#596=CARTESIAN_POINT('',(0.,0.,0.));
#597=CARTESIAN_POINT('',(0.,1.37254663940564,-8.9453125));
#598=CARTESIAN_POINT('',(0.,-1.37254663940951,-8.94531250000363));
#599=CARTESIAN_POINT('',(0.,-1.56125112837913E-14,-10.4));
#600=CARTESIAN_POINT('',(0.,-13.,13.));
#601=CARTESIAN_POINT('',(1.,1.37254663940084,-8.94531249999547));
#602=CARTESIAN_POINT('',(1.,-1.37254663940951,-8.94531250000363));
#603=CARTESIAN_POINT('',(0.,0.,0.));
#604=CARTESIAN_POINT('',(1.,-1.56125112837913E-14,-10.4));
#605=MECHANICAL_DESIGN_GEOMETRIC_PRESENTATION_REPRESENTATION('',(#359,#360,
#361),#606);
#606=(
GEOMETRIC_REPRESENTATION_CONTEXT(3)
GLOBAL_UNCERTAINTY_ASSIGNED_CONTEXT((#607))
GLOBAL_UNIT_ASSIGNED_CONTEXT((#613,#609,#608))
REPRESENTATION_CONTEXT('08-0045-000-001-001_01',
'TOP_LEVEL_ASSEMBLY_PART')
);
#607=UNCERTAINTY_MEASURE_WITH_UNIT(LENGTH_MEASURE(2.E-5),#613,
'DISTANCE_ACCURACY_VALUE','Maximum Tolerance applied to model');
#608=(
NAMED_UNIT(*)
SI_UNIT($,.STERADIAN.)
SOLID_ANGLE_UNIT()
);
#609=(
CONVERSION_BASED_UNIT('DEGREE',#611)
NAMED_UNIT(#610)
PLANE_ANGLE_UNIT()
);
#610=DIMENSIONAL_EXPONENTS(0.,0.,0.,0.,0.,0.,0.);
#611=PLANE_ANGLE_MEASURE_WITH_UNIT(PLANE_ANGLE_MEASURE(0.0174532925),#612);
#612=(
NAMED_UNIT(*)
PLANE_ANGLE_UNIT()
SI_UNIT($,.RADIAN.)
);
#613=(
LENGTH_UNIT()
NAMED_UNIT(*)
SI_UNIT(.MILLI.,.METRE.)
);
ENDSEC;
END-ISO-10303-21;
