ISO-10303-21;
HEADER;
/* Generated by software containing ST-Developer
 * from STEP Tools, Inc. (www.steptools.com) 
 */
/* OPTION: using custom schema-name function */

FILE_DESCRIPTION(
/* description */ (''),
/* implementation_level */ '2;1');

FILE_NAME(
/* name */ '04 0183 000 001.stp',
/* time_stamp */ '2020-08-25T10:52:03+02:00',
/* author */ (''),
/* organization */ (''),
/* preprocessor_version */ 'ST-DEVELOPER v16',
/* originating_system */ 'SIEMENS PLM Software NX 11.0',
/* authorisation */ '');

FILE_SCHEMA (('AUTOMOTIVE_DESIGN { 1 0 10303 214 3 1 1 1 }'));
ENDSEC;

DATA;
#10=PROPERTY_DEFINITION_REPRESENTATION(#14,#12);
#11=PROPERTY_DEFINITION_REPRESENTATION(#15,#13);
#12=REPRESENTATION('',(#16),#613);
#13=REPRESENTATION('',(#17),#613);
#14=PROPERTY_DEFINITION('pmi validation property','',#21);
#15=PROPERTY_DEFINITION('pmi validation property','',#21);
#16=VALUE_REPRESENTATION_ITEM('number of annotations',COUNT_MEASURE(0.));
#17=VALUE_REPRESENTATION_ITEM('number of views',COUNT_MEASURE(0.));
#18=SHAPE_REPRESENTATION_RELATIONSHIP('None',
'relationship between rhen155CA26Blwq9-None and rhen155CA26Blwq9-None',
#30,#19);
#19=ADVANCED_BREP_SHAPE_REPRESENTATION('rhen155CA26Blwq9-None',(#40),#613);
#20=SHAPE_DEFINITION_REPRESENTATION(#21,#30);
#21=PRODUCT_DEFINITION_SHAPE('','',#22);
#22=PRODUCT_DEFINITION(' ','',#24,#23);
#23=PRODUCT_DEFINITION_CONTEXT('part definition',#29,'design');
#24=PRODUCT_DEFINITION_FORMATION_WITH_SPECIFIED_SOURCE(' ',' ',#26,
 .NOT_KNOWN.);
#25=PRODUCT_RELATED_PRODUCT_CATEGORY('part','',(#26));
#26=PRODUCT('rhen155CA26Blwq9','rhen155CA26Blwq9',' ',(#27));
#27=PRODUCT_CONTEXT(' ',#29,'mechanical');
#28=APPLICATION_PROTOCOL_DEFINITION('international standard',
'automotive_design',2010,#29);
#29=APPLICATION_CONTEXT(
'core data for automotive mechanical design processes');
#30=SHAPE_REPRESENTATION('rhen155CA26Blwq9-None',(#380),#613);
#31=PRESENTATION_LAYER_ASSIGNMENT('1','Layer 1',(#40));
#32=STYLED_ITEM('',(#33),#40);
#33=PRESENTATION_STYLE_ASSIGNMENT((#34));
#34=SURFACE_STYLE_USAGE(.BOTH.,#35);
#35=SURFACE_SIDE_STYLE('',(#36));
#36=SURFACE_STYLE_FILL_AREA(#37);
#37=FILL_AREA_STYLE('',(#38));
#38=FILL_AREA_STYLE_COLOUR('',#39);
#39=COLOUR_RGB('Pale Carrot',0.964705882352941,0.627450980392157,0.286259250782025);
#40=MANIFOLD_SOLID_BREP('',#41);
#41=CLOSED_SHELL('',(#71,#72,#73,#74,#75,#76,#77,#78,#79,#80,#81,#82,#83,
#84,#85,#86,#87,#88));
#42=FACE_BOUND('',#118,.T.);
#43=FACE_BOUND('',#119,.T.);
#44=FACE_BOUND('',#123,.T.);
#45=FACE_BOUND('',#124,.T.);
#46=FACE_BOUND('',#125,.T.);
#47=FACE_BOUND('',#126,.T.);
#48=FACE_BOUND('',#132,.T.);
#49=FACE_BOUND('',#133,.T.);
#50=CYLINDRICAL_SURFACE('',#384,1.);
#51=CYLINDRICAL_SURFACE('',#397,2.4);
#52=CYLINDRICAL_SURFACE('',#400,1.);
#53=CYLINDRICAL_SURFACE('',#404,9.);
#54=CYLINDRICAL_SURFACE('',#408,11.);
#55=CYLINDRICAL_SURFACE('',#411,0.5);
#56=CYLINDRICAL_SURFACE('',#412,0.2);
#57=CIRCLE('',#382,1.);
#58=CIRCLE('',#383,1.);
#59=CIRCLE('',#386,0.5);
#60=CIRCLE('',#387,0.2);
#61=CIRCLE('',#389,11.);
#62=CIRCLE('',#390,9.);
#63=CIRCLE('',#392,0.5);
#64=CIRCLE('',#393,0.2);
#65=CIRCLE('',#395,2.4);
#66=CIRCLE('',#396,2.4);
#67=CIRCLE('',#398,1.);
#68=CIRCLE('',#399,1.);
#69=CIRCLE('',#403,9.);
#70=CIRCLE('',#407,11.);
#71=ADVANCED_FACE('',(#100),#89,.T.);
#72=ADVANCED_FACE('',(#101),#50,.F.);
#73=ADVANCED_FACE('',(#102),#90,.T.);
#74=ADVANCED_FACE('',(#103),#91,.F.);
#75=ADVANCED_FACE('',(#42,#43),#92,.F.);
#76=ADVANCED_FACE('',(#104),#93,.F.);
#77=ADVANCED_FACE('',(#105),#51,.T.);
#78=ADVANCED_FACE('',(#106),#52,.F.);
#79=ADVANCED_FACE('',(#44,#45),#94,.T.);
#80=ADVANCED_FACE('',(#46,#47),#95,.F.);
#81=ADVANCED_FACE('',(#107),#53,.F.);
#82=ADVANCED_FACE('',(#108),#96,.F.);
#83=ADVANCED_FACE('',(#109),#97,.F.);
#84=ADVANCED_FACE('',(#110),#54,.T.);
#85=ADVANCED_FACE('',(#111),#98,.F.);
#86=ADVANCED_FACE('',(#48,#49),#99,.F.);
#87=ADVANCED_FACE('',(#112),#55,.T.);
#88=ADVANCED_FACE('',(#113),#56,.F.);
#89=PLANE('',#381);
#90=PLANE('',#385);
#91=PLANE('',#388);
#92=PLANE('',#391);
#93=PLANE('',#394);
#94=PLANE('',#401);
#95=PLANE('',#402);
#96=PLANE('',#405);
#97=PLANE('',#406);
#98=PLANE('',#409);
#99=PLANE('',#410);
#100=FACE_OUTER_BOUND('',#114,.T.);
#101=FACE_OUTER_BOUND('',#115,.T.);
#102=FACE_OUTER_BOUND('',#116,.T.);
#103=FACE_OUTER_BOUND('',#117,.T.);
#104=FACE_OUTER_BOUND('',#120,.T.);
#105=FACE_OUTER_BOUND('',#121,.T.);
#106=FACE_OUTER_BOUND('',#122,.T.);
#107=FACE_OUTER_BOUND('',#127,.T.);
#108=FACE_OUTER_BOUND('',#128,.T.);
#109=FACE_OUTER_BOUND('',#129,.T.);
#110=FACE_OUTER_BOUND('',#130,.T.);
#111=FACE_OUTER_BOUND('',#131,.T.);
#112=FACE_OUTER_BOUND('',#134,.T.);
#113=FACE_OUTER_BOUND('',#135,.T.);
#114=EDGE_LOOP('',(#136,#137,#138,#139));
#115=EDGE_LOOP('',(#140,#141,#142,#143));
#116=EDGE_LOOP('',(#144,#145,#146,#147));
#117=EDGE_LOOP('',(#148,#149,#150,#151,#152,#153,#154,#155));
#118=EDGE_LOOP('',(#156,#157,#158,#159));
#119=EDGE_LOOP('',(#160,#161,#162,#163));
#120=EDGE_LOOP('',(#164,#165,#166,#167,#168,#169,#170,#171));
#121=EDGE_LOOP('',(#172,#173,#174,#175));
#122=EDGE_LOOP('',(#176,#177,#178,#179));
#123=EDGE_LOOP('',(#180,#181,#182,#183));
#124=EDGE_LOOP('',(#184,#185,#186,#187));
#125=EDGE_LOOP('',(#188,#189,#190,#191));
#126=EDGE_LOOP('',(#192,#193,#194,#195));
#127=EDGE_LOOP('',(#196,#197,#198,#199));
#128=EDGE_LOOP('',(#200,#201,#202,#203));
#129=EDGE_LOOP('',(#204,#205,#206,#207));
#130=EDGE_LOOP('',(#208,#209,#210,#211));
#131=EDGE_LOOP('',(#212,#213,#214,#215));
#132=EDGE_LOOP('',(#216,#217,#218,#219));
#133=EDGE_LOOP('',(#220,#221,#222,#223));
#134=EDGE_LOOP('',(#224,#225,#226,#227));
#135=EDGE_LOOP('',(#228,#229,#230,#231));
#136=ORIENTED_EDGE('',*,*,#264,.F.);
#137=ORIENTED_EDGE('',*,*,#265,.F.);
#138=ORIENTED_EDGE('',*,*,#266,.T.);
#139=ORIENTED_EDGE('',*,*,#267,.T.);
#140=ORIENTED_EDGE('',*,*,#268,.F.);
#141=ORIENTED_EDGE('',*,*,#269,.F.);
#142=ORIENTED_EDGE('',*,*,#270,.T.);
#143=ORIENTED_EDGE('',*,*,#265,.T.);
#144=ORIENTED_EDGE('',*,*,#271,.F.);
#145=ORIENTED_EDGE('',*,*,#272,.F.);
#146=ORIENTED_EDGE('',*,*,#273,.T.);
#147=ORIENTED_EDGE('',*,*,#269,.T.);
#148=ORIENTED_EDGE('',*,*,#274,.F.);
#149=ORIENTED_EDGE('',*,*,#275,.T.);
#150=ORIENTED_EDGE('',*,*,#276,.F.);
#151=ORIENTED_EDGE('',*,*,#277,.T.);
#152=ORIENTED_EDGE('',*,*,#278,.T.);
#153=ORIENTED_EDGE('',*,*,#279,.T.);
#154=ORIENTED_EDGE('',*,*,#280,.T.);
#155=ORIENTED_EDGE('',*,*,#281,.T.);
#156=ORIENTED_EDGE('',*,*,#282,.F.);
#157=ORIENTED_EDGE('',*,*,#283,.T.);
#158=ORIENTED_EDGE('',*,*,#274,.T.);
#159=ORIENTED_EDGE('',*,*,#284,.T.);
#160=ORIENTED_EDGE('',*,*,#285,.F.);
#161=ORIENTED_EDGE('',*,*,#286,.F.);
#162=ORIENTED_EDGE('',*,*,#287,.F.);
#163=ORIENTED_EDGE('',*,*,#288,.F.);
#164=ORIENTED_EDGE('',*,*,#289,.F.);
#165=ORIENTED_EDGE('',*,*,#290,.T.);
#166=ORIENTED_EDGE('',*,*,#282,.T.);
#167=ORIENTED_EDGE('',*,*,#291,.F.);
#168=ORIENTED_EDGE('',*,*,#292,.T.);
#169=ORIENTED_EDGE('',*,*,#293,.T.);
#170=ORIENTED_EDGE('',*,*,#294,.T.);
#171=ORIENTED_EDGE('',*,*,#295,.F.);
#172=ORIENTED_EDGE('',*,*,#296,.T.);
#173=ORIENTED_EDGE('',*,*,#277,.F.);
#174=ORIENTED_EDGE('',*,*,#297,.F.);
#175=ORIENTED_EDGE('',*,*,#295,.T.);
#176=ORIENTED_EDGE('',*,*,#298,.F.);
#177=ORIENTED_EDGE('',*,*,#267,.F.);
#178=ORIENTED_EDGE('',*,*,#299,.T.);
#179=ORIENTED_EDGE('',*,*,#272,.T.);
#180=ORIENTED_EDGE('',*,*,#276,.T.);
#181=ORIENTED_EDGE('',*,*,#300,.T.);
#182=ORIENTED_EDGE('',*,*,#289,.T.);
#183=ORIENTED_EDGE('',*,*,#297,.T.);
#184=ORIENTED_EDGE('',*,*,#266,.F.);
#185=ORIENTED_EDGE('',*,*,#270,.F.);
#186=ORIENTED_EDGE('',*,*,#273,.F.);
#187=ORIENTED_EDGE('',*,*,#299,.F.);
#188=ORIENTED_EDGE('',*,*,#294,.F.);
#189=ORIENTED_EDGE('',*,*,#301,.T.);
#190=ORIENTED_EDGE('',*,*,#278,.F.);
#191=ORIENTED_EDGE('',*,*,#296,.F.);
#192=ORIENTED_EDGE('',*,*,#264,.T.);
#193=ORIENTED_EDGE('',*,*,#298,.T.);
#194=ORIENTED_EDGE('',*,*,#271,.T.);
#195=ORIENTED_EDGE('',*,*,#268,.T.);
#196=ORIENTED_EDGE('',*,*,#285,.T.);
#197=ORIENTED_EDGE('',*,*,#302,.F.);
#198=ORIENTED_EDGE('',*,*,#303,.F.);
#199=ORIENTED_EDGE('',*,*,#304,.T.);
#200=ORIENTED_EDGE('',*,*,#286,.T.);
#201=ORIENTED_EDGE('',*,*,#304,.F.);
#202=ORIENTED_EDGE('',*,*,#305,.F.);
#203=ORIENTED_EDGE('',*,*,#306,.T.);
#204=ORIENTED_EDGE('',*,*,#287,.T.);
#205=ORIENTED_EDGE('',*,*,#306,.F.);
#206=ORIENTED_EDGE('',*,*,#307,.F.);
#207=ORIENTED_EDGE('',*,*,#308,.T.);
#208=ORIENTED_EDGE('',*,*,#284,.F.);
#209=ORIENTED_EDGE('',*,*,#281,.F.);
#210=ORIENTED_EDGE('',*,*,#309,.T.);
#211=ORIENTED_EDGE('',*,*,#291,.T.);
#212=ORIENTED_EDGE('',*,*,#288,.T.);
#213=ORIENTED_EDGE('',*,*,#308,.F.);
#214=ORIENTED_EDGE('',*,*,#310,.F.);
#215=ORIENTED_EDGE('',*,*,#302,.T.);
#216=ORIENTED_EDGE('',*,*,#280,.F.);
#217=ORIENTED_EDGE('',*,*,#311,.T.);
#218=ORIENTED_EDGE('',*,*,#292,.F.);
#219=ORIENTED_EDGE('',*,*,#309,.F.);
#220=ORIENTED_EDGE('',*,*,#303,.T.);
#221=ORIENTED_EDGE('',*,*,#310,.T.);
#222=ORIENTED_EDGE('',*,*,#307,.T.);
#223=ORIENTED_EDGE('',*,*,#305,.T.);
#224=ORIENTED_EDGE('',*,*,#275,.F.);
#225=ORIENTED_EDGE('',*,*,#283,.F.);
#226=ORIENTED_EDGE('',*,*,#290,.F.);
#227=ORIENTED_EDGE('',*,*,#300,.F.);
#228=ORIENTED_EDGE('',*,*,#293,.F.);
#229=ORIENTED_EDGE('',*,*,#311,.F.);
#230=ORIENTED_EDGE('',*,*,#279,.F.);
#231=ORIENTED_EDGE('',*,*,#301,.F.);
#232=VERTEX_POINT('',#515);
#233=VERTEX_POINT('',#516);
#234=VERTEX_POINT('',#518);
#235=VERTEX_POINT('',#520);
#236=VERTEX_POINT('',#524);
#237=VERTEX_POINT('',#526);
#238=VERTEX_POINT('',#530);
#239=VERTEX_POINT('',#532);
#240=VERTEX_POINT('',#536);
#241=VERTEX_POINT('',#537);
#242=VERTEX_POINT('',#539);
#243=VERTEX_POINT('',#541);
#244=VERTEX_POINT('',#543);
#245=VERTEX_POINT('',#545);
#246=VERTEX_POINT('',#547);
#247=VERTEX_POINT('',#549);
#248=VERTEX_POINT('',#553);
#249=VERTEX_POINT('',#554);
#250=VERTEX_POINT('',#558);
#251=VERTEX_POINT('',#559);
#252=VERTEX_POINT('',#561);
#253=VERTEX_POINT('',#563);
#254=VERTEX_POINT('',#567);
#255=VERTEX_POINT('',#568);
#256=VERTEX_POINT('',#571);
#257=VERTEX_POINT('',#573);
#258=VERTEX_POINT('',#575);
#259=VERTEX_POINT('',#577);
#260=VERTEX_POINT('',#591);
#261=VERTEX_POINT('',#593);
#262=VERTEX_POINT('',#597);
#263=VERTEX_POINT('',#601);
#264=EDGE_CURVE('',#232,#233,#312,.T.);
#265=EDGE_CURVE('',#234,#232,#313,.T.);
#266=EDGE_CURVE('',#234,#235,#314,.T.);
#267=EDGE_CURVE('',#235,#233,#315,.T.);
#268=EDGE_CURVE('',#236,#232,#57,.T.);
#269=EDGE_CURVE('',#237,#236,#316,.T.);
#270=EDGE_CURVE('',#237,#234,#58,.T.);
#271=EDGE_CURVE('',#238,#236,#317,.T.);
#272=EDGE_CURVE('',#239,#238,#318,.T.);
#273=EDGE_CURVE('',#239,#237,#319,.T.);
#274=EDGE_CURVE('',#240,#241,#320,.T.);
#275=EDGE_CURVE('',#240,#242,#59,.T.);
#276=EDGE_CURVE('',#243,#242,#321,.T.);
#277=EDGE_CURVE('',#243,#244,#322,.T.);
#278=EDGE_CURVE('',#244,#245,#323,.T.);
#279=EDGE_CURVE('',#245,#246,#60,.T.);
#280=EDGE_CURVE('',#246,#247,#324,.T.);
#281=EDGE_CURVE('',#247,#241,#325,.T.);
#282=EDGE_CURVE('',#248,#249,#326,.T.);
#283=EDGE_CURVE('',#248,#240,#327,.T.);
#284=EDGE_CURVE('',#241,#249,#61,.T.);
#285=EDGE_CURVE('',#250,#251,#62,.T.);
#286=EDGE_CURVE('',#252,#250,#328,.T.);
#287=EDGE_CURVE('',#253,#252,#329,.T.);
#288=EDGE_CURVE('',#251,#253,#330,.T.);
#289=EDGE_CURVE('',#254,#255,#331,.T.);
#290=EDGE_CURVE('',#254,#248,#63,.T.);
#291=EDGE_CURVE('',#256,#249,#332,.T.);
#292=EDGE_CURVE('',#256,#257,#333,.T.);
#293=EDGE_CURVE('',#257,#258,#64,.T.);
#294=EDGE_CURVE('',#258,#259,#334,.T.);
#295=EDGE_CURVE('',#255,#259,#335,.T.);
#296=EDGE_CURVE('',#259,#244,#65,.T.);
#297=EDGE_CURVE('',#255,#243,#66,.T.);
#298=EDGE_CURVE('',#233,#238,#67,.T.);
#299=EDGE_CURVE('',#235,#239,#68,.T.);
#300=EDGE_CURVE('',#242,#254,#336,.T.);
#301=EDGE_CURVE('',#258,#245,#337,.T.);
#302=EDGE_CURVE('',#260,#251,#338,.T.);
#303=EDGE_CURVE('',#261,#260,#69,.T.);
#304=EDGE_CURVE('',#261,#250,#339,.T.);
#305=EDGE_CURVE('',#262,#261,#340,.T.);
#306=EDGE_CURVE('',#262,#252,#341,.T.);
#307=EDGE_CURVE('',#263,#262,#342,.T.);
#308=EDGE_CURVE('',#263,#253,#343,.T.);
#309=EDGE_CURVE('',#247,#256,#70,.T.);
#310=EDGE_CURVE('',#260,#263,#344,.T.);
#311=EDGE_CURVE('',#246,#257,#345,.T.);
#312=LINE('',#514,#346);
#313=LINE('',#517,#347);
#314=LINE('',#519,#348);
#315=LINE('',#521,#349);
#316=LINE('',#525,#350);
#317=LINE('',#529,#351);
#318=LINE('',#531,#352);
#319=LINE('',#533,#353);
#320=LINE('',#535,#354);
#321=LINE('',#540,#355);
#322=LINE('',#542,#356);
#323=LINE('',#544,#357);
#324=LINE('',#548,#358);
#325=LINE('',#550,#359);
#326=LINE('',#552,#360);
#327=LINE('',#555,#361);
#328=LINE('',#560,#362);
#329=LINE('',#562,#363);
#330=LINE('',#564,#364);
#331=LINE('',#566,#365);
#332=LINE('',#570,#366);
#333=LINE('',#572,#367);
#334=LINE('',#576,#368);
#335=LINE('',#578,#369);
#336=LINE('',#586,#370);
#337=LINE('',#588,#371);
#338=LINE('',#590,#372);
#339=LINE('',#594,#373);
#340=LINE('',#596,#374);
#341=LINE('',#598,#375);
#342=LINE('',#600,#376);
#343=LINE('',#602,#377);
#344=LINE('',#606,#378);
#345=LINE('',#608,#379);
#346=VECTOR('',#415,1.);
#347=VECTOR('',#416,1.);
#348=VECTOR('',#417,1.);
#349=VECTOR('',#418,1.);
#350=VECTOR('',#423,1.);
#351=VECTOR('',#428,1.);
#352=VECTOR('',#429,1.);
#353=VECTOR('',#430,1.);
#354=VECTOR('',#433,1.);
#355=VECTOR('',#436,1.);
#356=VECTOR('',#437,1.);
#357=VECTOR('',#438,1.);
#358=VECTOR('',#441,1.);
#359=VECTOR('',#442,1.);
#360=VECTOR('',#445,1.);
#361=VECTOR('',#446,1.);
#362=VECTOR('',#451,1.);
#363=VECTOR('',#452,1.);
#364=VECTOR('',#453,1.);
#365=VECTOR('',#456,1.);
#366=VECTOR('',#459,1.);
#367=VECTOR('',#460,1.);
#368=VECTOR('',#463,1.);
#369=VECTOR('',#464,1.);
#370=VECTOR('',#479,1.);
#371=VECTOR('',#482,1.);
#372=VECTOR('',#485,1.);
#373=VECTOR('',#488,1.);
#374=VECTOR('',#491,1.);
#375=VECTOR('',#492,1.);
#376=VECTOR('',#495,1.);
#377=VECTOR('',#496,1.);
#378=VECTOR('',#503,1.);
#379=VECTOR('',#506,1.);
#380=AXIS2_PLACEMENT_3D('',#513,#413,#414);
#381=AXIS2_PLACEMENT_3D('',#522,#419,#420);
#382=AXIS2_PLACEMENT_3D('',#523,#421,#422);
#383=AXIS2_PLACEMENT_3D('',#527,#424,#425);
#384=AXIS2_PLACEMENT_3D('',#528,#426,#427);
#385=AXIS2_PLACEMENT_3D('',#534,#431,#432);
#386=AXIS2_PLACEMENT_3D('',#538,#434,#435);
#387=AXIS2_PLACEMENT_3D('',#546,#439,#440);
#388=AXIS2_PLACEMENT_3D('',#551,#443,#444);
#389=AXIS2_PLACEMENT_3D('',#556,#447,#448);
#390=AXIS2_PLACEMENT_3D('',#557,#449,#450);
#391=AXIS2_PLACEMENT_3D('',#565,#454,#455);
#392=AXIS2_PLACEMENT_3D('',#569,#457,#458);
#393=AXIS2_PLACEMENT_3D('',#574,#461,#462);
#394=AXIS2_PLACEMENT_3D('',#579,#465,#466);
#395=AXIS2_PLACEMENT_3D('',#580,#467,#468);
#396=AXIS2_PLACEMENT_3D('',#581,#469,#470);
#397=AXIS2_PLACEMENT_3D('',#582,#471,#472);
#398=AXIS2_PLACEMENT_3D('',#583,#473,#474);
#399=AXIS2_PLACEMENT_3D('',#584,#475,#476);
#400=AXIS2_PLACEMENT_3D('',#585,#477,#478);
#401=AXIS2_PLACEMENT_3D('',#587,#480,#481);
#402=AXIS2_PLACEMENT_3D('',#589,#483,#484);
#403=AXIS2_PLACEMENT_3D('',#592,#486,#487);
#404=AXIS2_PLACEMENT_3D('',#595,#489,#490);
#405=AXIS2_PLACEMENT_3D('',#599,#493,#494);
#406=AXIS2_PLACEMENT_3D('',#603,#497,#498);
#407=AXIS2_PLACEMENT_3D('',#604,#499,#500);
#408=AXIS2_PLACEMENT_3D('',#605,#501,#502);
#409=AXIS2_PLACEMENT_3D('',#607,#504,#505);
#410=AXIS2_PLACEMENT_3D('',#609,#507,#508);
#411=AXIS2_PLACEMENT_3D('',#610,#509,#510);
#412=AXIS2_PLACEMENT_3D('',#611,#511,#512);
#413=DIRECTION('',(0.,0.,1.));
#414=DIRECTION('',(1.,0.,0.));
#415=DIRECTION('',(0.,0.,-1.));
#416=DIRECTION('',(0.,1.,0.));
#417=DIRECTION('',(0.,0.,-1.));
#418=DIRECTION('',(0.,1.,0.));
#419=DIRECTION('',(1.,0.,0.));
#420=DIRECTION('',(0.,0.,-1.));
#421=DIRECTION('',(0.,-1.,0.));
#422=DIRECTION('',(1.,0.,0.));
#423=DIRECTION('',(0.,1.,0.));
#424=DIRECTION('',(0.,-1.,0.));
#425=DIRECTION('',(1.,0.,0.));
#426=DIRECTION('',(0.,1.,0.));
#427=DIRECTION('',(0.,0.,1.));
#428=DIRECTION('',(0.,0.,1.));
#429=DIRECTION('',(0.,1.,0.));
#430=DIRECTION('',(0.,0.,1.));
#431=DIRECTION('',(-1.,0.,0.));
#432=DIRECTION('',(0.,0.,1.));
#433=DIRECTION('',(0.,1.,0.));
#434=DIRECTION('',(-1.,0.,1.95478187352296E-17));
#435=DIRECTION('',(-1.95478187352296E-17,0.,-1.));
#436=DIRECTION('',(-1.95478187352296E-17,0.,-1.));
#437=DIRECTION('',(0.,1.,0.));
#438=DIRECTION('',(-1.95478187352296E-17,0.,-1.));
#439=DIRECTION('',(1.,0.,-1.95478187352296E-17));
#440=DIRECTION('',(-1.95478187352296E-17,0.,-1.));
#441=DIRECTION('',(0.,1.,0.));
#442=DIRECTION('',(0.,0.,-1.));
#443=DIRECTION('',(1.,0.,-1.95478187352296E-17));
#444=DIRECTION('',(-1.95478187352296E-17,0.,-1.));
#445=DIRECTION('',(0.,1.,0.));
#446=DIRECTION('',(-1.,0.,0.));
#447=DIRECTION('',(0.,0.,-1.));
#448=DIRECTION('',(1.,1.5770213417971E-16,0.));
#449=DIRECTION('',(0.,0.,-1.));
#450=DIRECTION('',(1.,1.92747052886312E-16,0.));
#451=DIRECTION('',(0.,-1.,0.));
#452=DIRECTION('',(1.,0.,0.));
#453=DIRECTION('',(-1.95429969068102E-16,1.,0.));
#454=DIRECTION('',(0.,0.,1.));
#455=DIRECTION('',(1.,0.,0.));
#456=DIRECTION('',(-1.40741715975477E-14,0.,1.));
#457=DIRECTION('',(1.,0.,1.40741715975477E-14));
#458=DIRECTION('',(-1.38777878078145E-14,0.,1.));
#459=DIRECTION('',(0.,0.,-1.));
#460=DIRECTION('',(0.,-1.,0.));
#461=DIRECTION('',(-1.,0.,-1.40741715975477E-14));
#462=DIRECTION('',(-1.30104260698261E-14,0.,1.));
#463=DIRECTION('',(-1.40741715975477E-14,0.,1.));
#464=DIRECTION('',(0.,1.,0.));
#465=DIRECTION('',(-1.,0.,-1.40741715975477E-14));
#466=DIRECTION('',(-1.40738115605998E-14,0.,1.));
#467=DIRECTION('',(0.,-1.,0.));
#468=DIRECTION('',(1.,0.,0.));
#469=DIRECTION('',(0.,-1.,0.));
#470=DIRECTION('',(1.,0.,0.));
#471=DIRECTION('',(0.,1.,0.));
#472=DIRECTION('',(0.,0.,1.));
#473=DIRECTION('',(0.,-1.,0.));
#474=DIRECTION('',(1.,0.,0.));
#475=DIRECTION('',(0.,-1.,0.));
#476=DIRECTION('',(1.,0.,0.));
#477=DIRECTION('',(0.,1.,0.));
#478=DIRECTION('',(0.,0.,1.));
#479=DIRECTION('',(1.,0.,0.));
#480=DIRECTION('',(0.,-1.,0.));
#481=DIRECTION('',(0.,0.,-1.));
#482=DIRECTION('',(-1.,0.,0.));
#483=DIRECTION('',(0.,-1.,0.));
#484=DIRECTION('',(0.,0.,-1.));
#485=DIRECTION('',(0.,0.,-1.));
#486=DIRECTION('',(0.,0.,-1.));
#487=DIRECTION('',(1.,1.92747052886312E-16,0.));
#488=DIRECTION('',(0.,0.,-1.));
#489=DIRECTION('',(0.,0.,-1.));
#490=DIRECTION('',(-1.,0.,0.));
#491=DIRECTION('',(0.,-1.,0.));
#492=DIRECTION('',(0.,0.,-1.));
#493=DIRECTION('',(1.,0.,0.));
#494=DIRECTION('',(0.,0.,-1.));
#495=DIRECTION('',(1.,0.,0.));
#496=DIRECTION('',(0.,0.,-1.));
#497=DIRECTION('',(0.,1.,0.));
#498=DIRECTION('',(0.,0.,1.));
#499=DIRECTION('',(0.,0.,-1.));
#500=DIRECTION('',(1.,1.5770213417971E-16,0.));
#501=DIRECTION('',(0.,0.,-1.));
#502=DIRECTION('',(-1.,0.,0.));
#503=DIRECTION('',(-1.95429969068102E-16,1.,0.));
#504=DIRECTION('',(-1.,-1.95429969068102E-16,0.));
#505=DIRECTION('',(1.95373231481888E-16,-1.,0.));
#506=DIRECTION('',(1.,0.,0.));
#507=DIRECTION('',(0.,0.,-1.));
#508=DIRECTION('',(-1.,0.,0.));
#509=DIRECTION('',(-1.,0.,0.));
#510=DIRECTION('',(0.,0.,1.));
#511=DIRECTION('',(1.,0.,0.));
#512=DIRECTION('',(0.,0.,-1.));
#513=CARTESIAN_POINT('',(0.,0.,0.));
#514=CARTESIAN_POINT('',(1.4,0.,10.6));
#515=CARTESIAN_POINT('',(1.4,0.,10.6));
#516=CARTESIAN_POINT('',(1.4,0.,9.6));
#517=CARTESIAN_POINT('',(1.4,-0.3,10.6));
#518=CARTESIAN_POINT('',(1.4,-0.3,10.6));
#519=CARTESIAN_POINT('',(1.4,-0.3,10.6));
#520=CARTESIAN_POINT('',(1.4,-0.3,9.6));
#521=CARTESIAN_POINT('',(1.4,-0.3,9.6));
#522=CARTESIAN_POINT('',(1.4,-0.3,10.6));
#523=CARTESIAN_POINT('',(2.4,0.,10.6));
#524=CARTESIAN_POINT('',(3.4,0.,10.6));
#525=CARTESIAN_POINT('',(3.4,-0.3,10.6));
#526=CARTESIAN_POINT('',(3.4,-0.3,10.6));
#527=CARTESIAN_POINT('',(2.4,-0.3,10.6));
#528=CARTESIAN_POINT('',(2.4,-0.3,10.6));
#529=CARTESIAN_POINT('',(3.4,0.,9.6));
#530=CARTESIAN_POINT('',(3.4,0.,9.6));
#531=CARTESIAN_POINT('',(3.4,-0.3,9.6));
#532=CARTESIAN_POINT('',(3.4,-0.3,9.6));
#533=CARTESIAN_POINT('',(3.4,-0.3,9.6));
#534=CARTESIAN_POINT('',(3.4,-0.3,9.6));
#535=CARTESIAN_POINT('',(-2.40741243048404E-32,-0.3,0.));
#536=CARTESIAN_POINT('',(-2.40741243048404E-32,0.2,0.));
#537=CARTESIAN_POINT('',(1.17145536458252E-15,0.265010479744303,0.));
#538=CARTESIAN_POINT('',(0.,0.2,0.5));
#539=CARTESIAN_POINT('',(9.77390936761476E-18,-0.3,0.5));
#540=CARTESIAN_POINT('',(2.07206878593433E-16,-0.3,10.6));
#541=CARTESIAN_POINT('',(2.07206878593433E-16,-0.3,10.6));
#542=CARTESIAN_POINT('',(2.07206878593433E-16,-0.3,10.6));
#543=CARTESIAN_POINT('',(2.07206878593433E-16,0.,10.6));
#544=CARTESIAN_POINT('',(2.07206878593433E-16,0.,10.6));
#545=CARTESIAN_POINT('',(9.77390936761476E-18,0.,0.5));
#546=CARTESIAN_POINT('',(0.,0.2,0.5));
#547=CARTESIAN_POINT('',(1.17145536458252E-15,0.2,0.3));
#548=CARTESIAN_POINT('',(1.17145536458252E-15,0.,0.3));
#549=CARTESIAN_POINT('',(1.17145536458252E-15,0.265010479744303,0.3));
#550=CARTESIAN_POINT('',(1.17145536458252E-15,0.265010479744303,0.3));
#551=CARTESIAN_POINT('',(2.07206878593433E-16,-0.3,10.6));
#552=CARTESIAN_POINT('',(4.80000000000015,-0.3,0.));
#553=CARTESIAN_POINT('',(4.80000000000015,0.2,0.));
#554=CARTESIAN_POINT('',(4.79999999999989,0.265010479744244,0.));
#555=CARTESIAN_POINT('',(0.,0.2,0.));
#556=CARTESIAN_POINT('',(2.40000000000007,11.,0.));
#557=CARTESIAN_POINT('',(2.40000000000007,11.,0.));
#558=CARTESIAN_POINT('',(3.80000000000009,19.8904443083571,0.));
#559=CARTESIAN_POINT('',(1.00000000000004,19.8904443083571,0.));
#560=CARTESIAN_POINT('',(3.80000000000015,21.,0.));
#561=CARTESIAN_POINT('',(3.80000000000015,21.,0.));
#562=CARTESIAN_POINT('',(1.,21.,0.));
#563=CARTESIAN_POINT('',(1.,21.,0.));
#564=CARTESIAN_POINT('',(1.,19.8904443083571,0.));
#565=CARTESIAN_POINT('',(0.,-0.3,0.));
#566=CARTESIAN_POINT('',(4.80000000000015,-0.3,0.));
#567=CARTESIAN_POINT('',(4.80000000000014,-0.3,0.5));
#568=CARTESIAN_POINT('',(4.8,-0.3,10.6));
#569=CARTESIAN_POINT('',(4.80000000000014,0.2,0.5));
#570=CARTESIAN_POINT('',(4.79999999999989,0.265010479744244,0.3));
#571=CARTESIAN_POINT('',(4.79999999999989,0.265010479744244,0.3));
#572=CARTESIAN_POINT('',(4.8,0.26501047974427,0.3));
#573=CARTESIAN_POINT('',(4.8,0.2,0.3));
#574=CARTESIAN_POINT('',(4.80000000000014,0.2,0.5));
#575=CARTESIAN_POINT('',(4.80000000000014,0.,0.5));
#576=CARTESIAN_POINT('',(4.80000000000015,0.,0.));
#577=CARTESIAN_POINT('',(4.8,0.,10.6));
#578=CARTESIAN_POINT('',(4.8,-0.3,10.6));
#579=CARTESIAN_POINT('',(4.80000000000015,-0.3,0.));
#580=CARTESIAN_POINT('',(2.4,0.,10.6));
#581=CARTESIAN_POINT('',(2.4,-0.3,10.6));
#582=CARTESIAN_POINT('',(2.4,-0.3,10.6));
#583=CARTESIAN_POINT('',(2.4,0.,9.6));
#584=CARTESIAN_POINT('',(2.4,-0.3,9.6));
#585=CARTESIAN_POINT('',(2.4,-0.3,9.6));
#586=CARTESIAN_POINT('',(4.80000000000015,-0.3,0.5));
#587=CARTESIAN_POINT('',(2.4,-0.3,10.6));
#588=CARTESIAN_POINT('',(0.,0.,0.5));
#589=CARTESIAN_POINT('',(2.4,0.,10.6));
#590=CARTESIAN_POINT('',(1.00000000000004,19.8904443083571,0.3));
#591=CARTESIAN_POINT('',(1.00000000000004,19.8904443083571,0.3));
#592=CARTESIAN_POINT('',(2.40000000000007,11.,0.3));
#593=CARTESIAN_POINT('',(3.80000000000009,19.8904443083571,0.3));
#594=CARTESIAN_POINT('',(3.80000000000009,19.8904443083571,0.3));
#595=CARTESIAN_POINT('',(2.40000000000007,11.,0.3));
#596=CARTESIAN_POINT('',(3.80000000000015,21.,0.3));
#597=CARTESIAN_POINT('',(3.80000000000015,21.,0.3));
#598=CARTESIAN_POINT('',(3.80000000000015,21.,0.3));
#599=CARTESIAN_POINT('',(3.80000000000015,21.,0.3));
#600=CARTESIAN_POINT('',(1.,21.,0.3));
#601=CARTESIAN_POINT('',(1.,21.,0.3));
#602=CARTESIAN_POINT('',(1.,21.,0.3));
#603=CARTESIAN_POINT('',(1.,21.,0.3));
#604=CARTESIAN_POINT('',(2.40000000000007,11.,0.3));
#605=CARTESIAN_POINT('',(2.40000000000007,11.,0.3));
#606=CARTESIAN_POINT('',(1.,19.8904443083571,0.3));
#607=CARTESIAN_POINT('',(1.,19.8904443083571,0.3));
#608=CARTESIAN_POINT('',(4.8,0.2,0.3));
#609=CARTESIAN_POINT('',(2.40000000000007,11.,0.3));
#610=CARTESIAN_POINT('',(2.4,0.2,0.5));
#611=CARTESIAN_POINT('',(2.4,0.2,0.5));
#612=MECHANICAL_DESIGN_GEOMETRIC_PRESENTATION_REPRESENTATION('',(#32),#613);
#613=(
GEOMETRIC_REPRESENTATION_CONTEXT(3)
GLOBAL_UNCERTAINTY_ASSIGNED_CONTEXT((#614))
GLOBAL_UNIT_ASSIGNED_CONTEXT((#620,#616,#615))
REPRESENTATION_CONTEXT('04 0183 000 001','TOP_LEVEL_ASSEMBLY_PART')
);
#614=UNCERTAINTY_MEASURE_WITH_UNIT(LENGTH_MEASURE(2.E-5),#620,
'DISTANCE_ACCURACY_VALUE','Maximum Tolerance applied to model');
#615=(
NAMED_UNIT(*)
SI_UNIT($,.STERADIAN.)
SOLID_ANGLE_UNIT()
);
#616=(
CONVERSION_BASED_UNIT('DEGREE',#618)
NAMED_UNIT(#617)
PLANE_ANGLE_UNIT()
);
#617=DIMENSIONAL_EXPONENTS(0.,0.,0.,0.,0.,0.,0.);
#618=PLANE_ANGLE_MEASURE_WITH_UNIT(PLANE_ANGLE_MEASURE(0.0174532925),#619);
#619=(
NAMED_UNIT(*)
PLANE_ANGLE_UNIT()
SI_UNIT($,.RADIAN.)
);
#620=(
LENGTH_UNIT()
NAMED_UNIT(*)
SI_UNIT(.MILLI.,.METRE.)
);
ENDSEC;
END-ISO-10303-21;
