ISO-10303-21;
HEADER;
/* Generated by software containing ST-Developer
 * from STEP Tools, Inc. (www.steptools.com) 
 */
/* OPTION: using custom schema-name function */

FILE_DESCRIPTION(
/* description */ (''),
/* implementation_level */ '2;1');

FILE_NAME(
/* name */ '',
/* time_stamp */ '2016-11-14T11:00:18+01:00',
/* author */ (''),
/* organization */ ('Franz Binder GmbH & Co.'),
/* preprocessor_version */ 'ST-DEVELOPER v14',
/* originating_system */ 'SIEMENS PLM Software NX 8.0',
/* authorisation */ '');

FILE_SCHEMA (('AUTOMOTIVE_DESIGN { 1 0 10303 214 3 1 1 1 }'));
ENDSEC;

DATA;
#10=PROPERTY_DEFINITION_REPRESENTATION(#14,#12);
#11=PROPERTY_DEFINITION_REPRESENTATION(#15,#13);
#12=REPRESENTATION('',(#16),#441);
#13=REPRESENTATION('',(#17),#441);
#14=PROPERTY_DEFINITION('pmi validation property','',#21);
#15=PROPERTY_DEFINITION('pmi validation property','',#21);
#16=VALUE_REPRESENTATION_ITEM('number of annotations',COUNT_MEASURE(0.));
#17=VALUE_REPRESENTATION_ITEM('number of views',COUNT_MEASURE(0.));
#18=SHAPE_REPRESENTATION_RELATIONSHIP('None',
'relationship between sgro1124802Cmma2-None and sgro1124802Cmma2-None',#30,
#19);
#19=ADVANCED_BREP_SHAPE_REPRESENTATION('sgro1124802Cmma2-None',(#40),#441);
#20=SHAPE_DEFINITION_REPRESENTATION(#21,#30);
#21=PRODUCT_DEFINITION_SHAPE('','',#22);
#22=PRODUCT_DEFINITION(' ','',#24,#23);
#23=PRODUCT_DEFINITION_CONTEXT('part definition',#29,'design');
#24=PRODUCT_DEFINITION_FORMATION_WITH_SPECIFIED_SOURCE(' ',' ',#26,
 .NOT_KNOWN.);
#25=PRODUCT_RELATED_PRODUCT_CATEGORY('part','',(#26));
#26=PRODUCT('sgro1124802Cmma2','sgro1124802Cmma2',' ',(#27));
#27=PRODUCT_CONTEXT(' ',#29,'mechanical');
#28=APPLICATION_PROTOCOL_DEFINITION('international standard',
'automotive_design',2010,#29);
#29=APPLICATION_CONTEXT(
'core data for automotive mechanical design processes');
#30=SHAPE_REPRESENTATION('sgro1124802Cmma2-None',(#231),#441);
#31=PRESENTATION_LAYER_ASSIGNMENT('1','Layer 1',(#40));
#32=STYLED_ITEM('',(#33),#40);
#33=PRESENTATION_STYLE_ASSIGNMENT((#34));
#34=SURFACE_STYLE_USAGE(.BOTH.,#35);
#35=SURFACE_SIDE_STYLE('',(#36));
#36=SURFACE_STYLE_FILL_AREA(#37);
#37=FILL_AREA_STYLE('',(#38));
#38=FILL_AREA_STYLE_COLOUR('',#39);
#39=COLOUR_RGB('White',0.815686274509804,0.815686274509804,0.815686274509804);
#40=MANIFOLD_SOLID_BREP('',#41);
#41=CLOSED_SHELL('',(#57,#58,#59,#60,#61,#62,#63,#64,#65,#66,#67,#68,#69,
#70,#71,#72,#73,#74));
#42=(
BOUNDED_SURFACE()
B_SPLINE_SURFACE(3,3,((#373,#374,#375,#376,#377,#378,#379),(#380,#381,#382,
#383,#384,#385,#386),(#387,#388,#389,#390,#391,#392,#393),(#394,#395,#396,
#397,#398,#399,#400)),.UNSPECIFIED.,.F.,.T.,.F.)
B_SPLINE_SURFACE_WITH_KNOTS((4,4),(1,3,3,3,1),(0.,1.),(-0.5,0.,0.5,1.,1.5),
 .UNSPECIFIED.)
GEOMETRIC_REPRESENTATION_ITEM()
RATIONAL_B_SPLINE_SURFACE(((1.,0.333333333333333,0.333333333333333,1.,0.333333333333333,
0.333333333333333,1.),(0.960979247794181,0.320326415931394,0.320326415931394,
0.960979247794181,0.320326415931394,0.320326415931394,0.960979247794181),
(0.960979247794181,0.320326415931394,0.320326415931394,0.960979247794181,
0.320326415931394,0.320326415931394,0.960979247794181),(1.,0.333333333333333,
0.333333333333333,1.,0.333333333333333,0.333333333333333,1.)))
REPRESENTATION_ITEM('')
SURFACE()
);
#43=(
BOUNDED_SURFACE()
B_SPLINE_SURFACE(3,3,((#405,#406,#407,#408,#409,#410,#411),(#412,#413,#414,
#415,#416,#417,#418),(#419,#420,#421,#422,#423,#424,#425),(#426,#427,#428,
#429,#430,#431,#432)),.UNSPECIFIED.,.F.,.T.,.F.)
B_SPLINE_SURFACE_WITH_KNOTS((4,4),(1,3,3,3,1),(0.,1.),(-0.5,0.,0.5,1.,1.5),
 .UNSPECIFIED.)
GEOMETRIC_REPRESENTATION_ITEM()
RATIONAL_B_SPLINE_SURFACE(((1.,0.333333333333333,0.333333333333333,1.,0.333333333333333,
0.333333333333333,1.),(0.968386229610454,0.322795409870151,0.322795409870151,
0.968386229610454,0.322795409870151,0.322795409870151,0.968386229610454),
(0.968386229610454,0.322795409870151,0.322795409870151,0.968386229610454,
0.322795409870151,0.322795409870151,0.968386229610454),(1.,0.333333333333333,
0.333333333333333,1.,0.333333333333333,0.333333333333333,1.)))
REPRESENTATION_ITEM('')
SURFACE()
);
#44=FACE_OUTER_BOUND('',#128,.T.);
#45=FACE_OUTER_BOUND('',#133,.T.);
#46=TOROIDAL_SURFACE('',#246,8.04173913043478,0.501739130434777);
#47=TOROIDAL_SURFACE('',#259,9.,0.5);
#48=TOROIDAL_SURFACE('',#260,9.,0.5);
#49=TOROIDAL_SURFACE('',#261,7.7,0.3);
#50=TOROIDAL_SURFACE('',#262,7.5,0.5);
#51=TOROIDAL_SURFACE('',#263,1.9985483488446,0.2);
#52=TOROIDAL_SURFACE('',#264,1.97700603049844,0.2);
#53=CYLINDRICAL_SURFACE('',#237,9.5);
#54=CYLINDRICAL_SURFACE('',#240,9.);
#55=CYLINDRICAL_SURFACE('',#244,8.);
#56=CYLINDRICAL_SURFACE('',#252,8.);
#57=ADVANCED_FACE('',(#80,#81),#75,.T.);
#58=ADVANCED_FACE('',(#82,#83),#53,.T.);
#59=ADVANCED_FACE('',(#84,#85),#54,.T.);
#60=ADVANCED_FACE('',(#86,#87),#76,.T.);
#61=ADVANCED_FACE('',(#88,#89),#55,.F.);
#62=ADVANCED_FACE('',(#90,#91),#46,.T.);
#63=ADVANCED_FACE('',(#92,#93),#77,.F.);
#64=ADVANCED_FACE('',(#94,#95),#56,.F.);
#65=ADVANCED_FACE('',(#44),#78,.T.);
#66=ADVANCED_FACE('',(#96,#97),#42,.T.);
#67=ADVANCED_FACE('',(#98,#99),#43,.T.);
#68=ADVANCED_FACE('',(#45),#79,.T.);
#69=ADVANCED_FACE('',(#100,#101),#47,.T.);
#70=ADVANCED_FACE('',(#102,#103),#48,.T.);
#71=ADVANCED_FACE('',(#104,#105),#49,.F.);
#72=ADVANCED_FACE('',(#106,#107),#50,.F.);
#73=ADVANCED_FACE('',(#108,#109),#51,.T.);
#74=ADVANCED_FACE('',(#110,#111),#52,.F.);
#75=PLANE('',#234);
#76=PLANE('',#242);
#77=PLANE('',#249);
#78=PLANE('',#254);
#79=PLANE('',#258);
#80=FACE_BOUND('',#112,.T.);
#81=FACE_BOUND('',#113,.T.);
#82=FACE_BOUND('',#114,.T.);
#83=FACE_BOUND('',#115,.T.);
#84=FACE_BOUND('',#116,.T.);
#85=FACE_BOUND('',#117,.T.);
#86=FACE_BOUND('',#118,.T.);
#87=FACE_BOUND('',#119,.T.);
#88=FACE_BOUND('',#120,.T.);
#89=FACE_BOUND('',#121,.T.);
#90=FACE_BOUND('',#122,.T.);
#91=FACE_BOUND('',#123,.T.);
#92=FACE_BOUND('',#124,.T.);
#93=FACE_BOUND('',#125,.T.);
#94=FACE_BOUND('',#126,.T.);
#95=FACE_BOUND('',#127,.T.);
#96=FACE_BOUND('',#129,.T.);
#97=FACE_BOUND('',#130,.T.);
#98=FACE_BOUND('',#131,.T.);
#99=FACE_BOUND('',#132,.T.);
#100=FACE_BOUND('',#134,.T.);
#101=FACE_BOUND('',#135,.T.);
#102=FACE_BOUND('',#136,.T.);
#103=FACE_BOUND('',#137,.T.);
#104=FACE_BOUND('',#138,.T.);
#105=FACE_BOUND('',#139,.T.);
#106=FACE_BOUND('',#140,.T.);
#107=FACE_BOUND('',#141,.T.);
#108=FACE_BOUND('',#142,.T.);
#109=FACE_BOUND('',#143,.T.);
#110=FACE_BOUND('',#144,.T.);
#111=FACE_BOUND('',#145,.T.);
#112=EDGE_LOOP('',(#146));
#113=EDGE_LOOP('',(#147));
#114=EDGE_LOOP('',(#148));
#115=EDGE_LOOP('',(#149));
#116=EDGE_LOOP('',(#150));
#117=EDGE_LOOP('',(#151));
#118=EDGE_LOOP('',(#152));
#119=EDGE_LOOP('',(#153));
#120=EDGE_LOOP('',(#154));
#121=EDGE_LOOP('',(#155));
#122=EDGE_LOOP('',(#156));
#123=EDGE_LOOP('',(#157));
#124=EDGE_LOOP('',(#158));
#125=EDGE_LOOP('',(#159));
#126=EDGE_LOOP('',(#160));
#127=EDGE_LOOP('',(#161));
#128=EDGE_LOOP('',(#162));
#129=EDGE_LOOP('',(#163));
#130=EDGE_LOOP('',(#164));
#131=EDGE_LOOP('',(#165));
#132=EDGE_LOOP('',(#166));
#133=EDGE_LOOP('',(#167));
#134=EDGE_LOOP('',(#168));
#135=EDGE_LOOP('',(#169));
#136=EDGE_LOOP('',(#170));
#137=EDGE_LOOP('',(#171));
#138=EDGE_LOOP('',(#172));
#139=EDGE_LOOP('',(#173));
#140=EDGE_LOOP('',(#174));
#141=EDGE_LOOP('',(#175));
#142=EDGE_LOOP('',(#176));
#143=EDGE_LOOP('',(#177));
#144=EDGE_LOOP('',(#178));
#145=EDGE_LOOP('',(#179));
#146=ORIENTED_EDGE('',*,*,#197,.T.);
#147=ORIENTED_EDGE('',*,*,#198,.T.);
#148=ORIENTED_EDGE('',*,*,#199,.T.);
#149=ORIENTED_EDGE('',*,*,#200,.T.);
#150=ORIENTED_EDGE('',*,*,#201,.F.);
#151=ORIENTED_EDGE('',*,*,#202,.T.);
#152=ORIENTED_EDGE('',*,*,#203,.T.);
#153=ORIENTED_EDGE('',*,*,#201,.T.);
#154=ORIENTED_EDGE('',*,*,#204,.T.);
#155=ORIENTED_EDGE('',*,*,#203,.F.);
#156=ORIENTED_EDGE('',*,*,#205,.T.);
#157=ORIENTED_EDGE('',*,*,#204,.F.);
#158=ORIENTED_EDGE('',*,*,#206,.T.);
#159=ORIENTED_EDGE('',*,*,#207,.T.);
#160=ORIENTED_EDGE('',*,*,#208,.T.);
#161=ORIENTED_EDGE('',*,*,#209,.T.);
#162=ORIENTED_EDGE('',*,*,#210,.F.);
#163=ORIENTED_EDGE('',*,*,#211,.T.);
#164=ORIENTED_EDGE('',*,*,#210,.T.);
#165=ORIENTED_EDGE('',*,*,#212,.T.);
#166=ORIENTED_EDGE('',*,*,#213,.F.);
#167=ORIENTED_EDGE('',*,*,#213,.T.);
#168=ORIENTED_EDGE('',*,*,#202,.F.);
#169=ORIENTED_EDGE('',*,*,#199,.F.);
#170=ORIENTED_EDGE('',*,*,#198,.F.);
#171=ORIENTED_EDGE('',*,*,#200,.F.);
#172=ORIENTED_EDGE('',*,*,#209,.F.);
#173=ORIENTED_EDGE('',*,*,#205,.F.);
#174=ORIENTED_EDGE('',*,*,#207,.F.);
#175=ORIENTED_EDGE('',*,*,#208,.F.);
#176=ORIENTED_EDGE('',*,*,#211,.F.);
#177=ORIENTED_EDGE('',*,*,#197,.F.);
#178=ORIENTED_EDGE('',*,*,#212,.F.);
#179=ORIENTED_EDGE('',*,*,#206,.F.);
#180=VERTEX_POINT('',#335);
#181=VERTEX_POINT('',#337);
#182=VERTEX_POINT('',#340);
#183=VERTEX_POINT('',#342);
#184=VERTEX_POINT('',#345);
#185=VERTEX_POINT('',#347);
#186=VERTEX_POINT('',#350);
#187=VERTEX_POINT('',#353);
#188=VERTEX_POINT('',#356);
#189=VERTEX_POINT('',#359);
#190=VERTEX_POINT('',#361);
#191=VERTEX_POINT('',#364);
#192=VERTEX_POINT('',#366);
#193=VERTEX_POINT('',#369);
#194=VERTEX_POINT('',#372);
#195=VERTEX_POINT('',#402);
#196=VERTEX_POINT('',#404);
#197=EDGE_CURVE('',#180,#180,#214,.T.);
#198=EDGE_CURVE('',#181,#181,#215,.T.);
#199=EDGE_CURVE('',#182,#182,#216,.T.);
#200=EDGE_CURVE('',#183,#183,#217,.T.);
#201=EDGE_CURVE('',#184,#184,#218,.T.);
#202=EDGE_CURVE('',#185,#185,#219,.T.);
#203=EDGE_CURVE('',#186,#186,#220,.T.);
#204=EDGE_CURVE('',#187,#187,#221,.T.);
#205=EDGE_CURVE('',#188,#188,#222,.T.);
#206=EDGE_CURVE('',#189,#189,#223,.T.);
#207=EDGE_CURVE('',#190,#190,#224,.T.);
#208=EDGE_CURVE('',#191,#191,#225,.T.);
#209=EDGE_CURVE('',#192,#192,#226,.T.);
#210=EDGE_CURVE('',#193,#193,#227,.T.);
#211=EDGE_CURVE('',#194,#194,#228,.T.);
#212=EDGE_CURVE('',#195,#195,#229,.T.);
#213=EDGE_CURVE('',#196,#196,#230,.T.);
#214=CIRCLE('',#232,1.9985483488446);
#215=CIRCLE('',#233,9.);
#216=CIRCLE('',#235,9.5);
#217=CIRCLE('',#236,9.5);
#218=CIRCLE('',#238,9.);
#219=CIRCLE('',#239,9.);
#220=CIRCLE('',#241,8.);
#221=CIRCLE('',#243,8.00000000000006);
#222=CIRCLE('',#245,7.82787418655101);
#223=CIRCLE('',#247,1.97700603049844);
#224=CIRCLE('',#248,7.5);
#225=CIRCLE('',#250,8.);
#226=CIRCLE('',#251,8.);
#227=CIRCLE('',#253,0.602124344467705);
#228=CIRCLE('',#255,1.87160071208306);
#229=CIRCLE('',#256,1.86106176499845);
#230=CIRCLE('',#257,0.411758446248584);
#231=AXIS2_PLACEMENT_3D('',#333,#265,#266);
#232=AXIS2_PLACEMENT_3D('',#334,#267,#268);
#233=AXIS2_PLACEMENT_3D('',#336,#269,#270);
#234=AXIS2_PLACEMENT_3D('',#338,#271,#272);
#235=AXIS2_PLACEMENT_3D('',#339,#273,#274);
#236=AXIS2_PLACEMENT_3D('',#341,#275,#276);
#237=AXIS2_PLACEMENT_3D('',#343,#277,#278);
#238=AXIS2_PLACEMENT_3D('',#344,#279,#280);
#239=AXIS2_PLACEMENT_3D('',#346,#281,#282);
#240=AXIS2_PLACEMENT_3D('',#348,#283,#284);
#241=AXIS2_PLACEMENT_3D('',#349,#285,#286);
#242=AXIS2_PLACEMENT_3D('',#351,#287,#288);
#243=AXIS2_PLACEMENT_3D('',#352,#289,#290);
#244=AXIS2_PLACEMENT_3D('',#354,#291,#292);
#245=AXIS2_PLACEMENT_3D('',#355,#293,#294);
#246=AXIS2_PLACEMENT_3D('',#357,#295,#296);
#247=AXIS2_PLACEMENT_3D('',#358,#297,#298);
#248=AXIS2_PLACEMENT_3D('',#360,#299,#300);
#249=AXIS2_PLACEMENT_3D('',#362,#301,#302);
#250=AXIS2_PLACEMENT_3D('',#363,#303,#304);
#251=AXIS2_PLACEMENT_3D('',#365,#305,#306);
#252=AXIS2_PLACEMENT_3D('',#367,#307,#308);
#253=AXIS2_PLACEMENT_3D('',#368,#309,#310);
#254=AXIS2_PLACEMENT_3D('',#370,#311,#312);
#255=AXIS2_PLACEMENT_3D('',#371,#313,#314);
#256=AXIS2_PLACEMENT_3D('',#401,#315,#316);
#257=AXIS2_PLACEMENT_3D('',#403,#317,#318);
#258=AXIS2_PLACEMENT_3D('',#433,#319,#320);
#259=AXIS2_PLACEMENT_3D('',#434,#321,#322);
#260=AXIS2_PLACEMENT_3D('',#435,#323,#324);
#261=AXIS2_PLACEMENT_3D('',#436,#325,#326);
#262=AXIS2_PLACEMENT_3D('',#437,#327,#328);
#263=AXIS2_PLACEMENT_3D('',#438,#329,#330);
#264=AXIS2_PLACEMENT_3D('',#439,#331,#332);
#265=DIRECTION('',(0.,0.,1.));
#266=DIRECTION('',(1.,0.,0.));
#267=DIRECTION('',(1.,0.,0.));
#268=DIRECTION('',(0.,0.,1.));
#269=DIRECTION('',(-1.,0.,0.));
#270=DIRECTION('',(0.,0.,1.));
#271=DIRECTION('',(-1.,0.,0.));
#272=DIRECTION('',(0.,0.,1.));
#273=DIRECTION('',(-1.,0.,0.));
#274=DIRECTION('',(0.,0.,-1.));
#275=DIRECTION('',(1.,0.,0.));
#276=DIRECTION('',(0.,0.,1.));
#277=DIRECTION('',(1.,0.,0.));
#278=DIRECTION('',(0.,0.,-1.));
#279=DIRECTION('',(1.,0.,0.));
#280=DIRECTION('',(0.,0.,-1.));
#281=DIRECTION('',(1.,0.,0.));
#282=DIRECTION('',(0.,0.,-1.));
#283=DIRECTION('',(1.,0.,0.));
#284=DIRECTION('',(0.,0.,-1.));
#285=DIRECTION('',(-1.,0.,0.));
#286=DIRECTION('',(0.,0.,1.));
#287=DIRECTION('',(1.,0.,0.));
#288=DIRECTION('',(0.,0.,-1.));
#289=DIRECTION('',(-1.,0.,0.));
#290=DIRECTION('',(0.,0.,1.));
#291=DIRECTION('',(-1.,0.,0.));
#292=DIRECTION('',(0.,0.,1.));
#293=DIRECTION('',(-1.,0.,0.));
#294=DIRECTION('',(0.,0.,-1.));
#295=DIRECTION('',(-1.,0.,0.));
#296=DIRECTION('',(0.,0.,1.));
#297=DIRECTION('',(-1.,0.,0.));
#298=DIRECTION('',(0.,0.,1.));
#299=DIRECTION('',(1.,0.,0.));
#300=DIRECTION('',(0.,0.,1.));
#301=DIRECTION('',(-1.,0.,0.));
#302=DIRECTION('',(0.,0.,1.));
#303=DIRECTION('',(-1.,0.,0.));
#304=DIRECTION('',(0.,0.,1.));
#305=DIRECTION('',(1.,0.,0.));
#306=DIRECTION('',(0.,0.,1.));
#307=DIRECTION('',(-1.,0.,0.));
#308=DIRECTION('',(0.,0.,1.));
#309=DIRECTION('',(1.,0.,0.));
#310=DIRECTION('',(0.,0.,-1.));
#311=DIRECTION('',(-1.,0.,0.));
#312=DIRECTION('',(0.,0.,1.));
#313=DIRECTION('',(-1.,0.,0.));
#314=DIRECTION('',(0.,0.,1.));
#315=DIRECTION('',(1.,0.,0.));
#316=DIRECTION('',(0.,0.,1.));
#317=DIRECTION('',(1.,0.,0.));
#318=DIRECTION('',(0.,0.,-1.));
#319=DIRECTION('',(1.,0.,0.));
#320=DIRECTION('',(0.,0.,-1.));
#321=DIRECTION('',(1.,0.,0.));
#322=DIRECTION('',(0.,0.,-1.));
#323=DIRECTION('',(-1.,0.,0.));
#324=DIRECTION('',(0.,0.,1.));
#325=DIRECTION('',(-1.,0.,0.));
#326=DIRECTION('',(0.,0.,1.));
#327=DIRECTION('',(-1.,0.,0.));
#328=DIRECTION('',(0.,0.,1.));
#329=DIRECTION('',(-1.,0.,0.));
#330=DIRECTION('',(0.,0.,1.));
#331=DIRECTION('',(-1.,0.,0.));
#332=DIRECTION('',(0.,0.,1.));
#333=CARTESIAN_POINT('',(0.,0.,0.));
#334=CARTESIAN_POINT('',(0.,0.,0.));
#335=CARTESIAN_POINT('',(0.,0.,1.9985483488446));
#336=CARTESIAN_POINT('',(0.,0.,0.));
#337=CARTESIAN_POINT('',(0.,0.,9.));
#338=CARTESIAN_POINT('',(0.,0.,0.));
#339=CARTESIAN_POINT('',(1.,0.,0.));
#340=CARTESIAN_POINT('',(1.,0.,-9.5));
#341=CARTESIAN_POINT('',(0.5,0.,0.));
#342=CARTESIAN_POINT('',(0.5,0.,9.5));
#343=CARTESIAN_POINT('',(0.,0.,0.));
#344=CARTESIAN_POINT('',(9.5,0.,0.));
#345=CARTESIAN_POINT('',(9.5,0.,-9.));
#346=CARTESIAN_POINT('',(1.5,0.,0.));
#347=CARTESIAN_POINT('',(1.5,0.,-9.));
#348=CARTESIAN_POINT('',(5.5,0.,0.));
#349=CARTESIAN_POINT('',(9.5,2.16840434497101E-016,2.71050543121376E-017));
#350=CARTESIAN_POINT('',(9.5,2.16840434497101E-016,8.));
#351=CARTESIAN_POINT('',(9.5,0.,0.));
#352=CARTESIAN_POINT('',(9.,0.,0.));
#353=CARTESIAN_POINT('',(9.,0.,8.00000000000006));
#354=CARTESIAN_POINT('',(9.5,2.16840434497101E-016,2.71050543121376E-017));
#355=CARTESIAN_POINT('',(8.04612343000882,0.,0.));
#356=CARTESIAN_POINT('',(8.04612343000882,0.,-7.82787418655101));
#357=CARTESIAN_POINT('',(8.5,0.,0.));
#358=CARTESIAN_POINT('',(1.5,0.,0.));
#359=CARTESIAN_POINT('',(1.5,0.,1.97700603049844));
#360=CARTESIAN_POINT('',(1.5,2.16840434497101E-016,2.71050543121376E-017));
#361=CARTESIAN_POINT('',(1.5,2.16840434497101E-016,7.5));
#362=CARTESIAN_POINT('',(1.5,2.16840434497101E-016,2.71050543121376E-017));
#363=CARTESIAN_POINT('',(2.,2.16840434497101E-016,2.71050543121376E-017));
#364=CARTESIAN_POINT('',(2.,2.16840434497101E-016,8.));
#365=CARTESIAN_POINT('',(7.77474142542125,2.16840434497101E-016,2.71050543121376E-017));
#366=CARTESIAN_POINT('',(7.77474142542125,2.16840434497101E-016,8.));
#367=CARTESIAN_POINT('',(9.5,2.16840434497101E-016,2.71050543121376E-017));
#368=CARTESIAN_POINT('',(0.5,0.,0.));
#369=CARTESIAN_POINT('',(0.5,0.,-0.602124344467705));
#370=CARTESIAN_POINT('',(0.5,-0.602124344467704,0.));
#371=CARTESIAN_POINT('',(0.0454545454545451,0.,0.));
#372=CARTESIAN_POINT('',(0.0454545454545451,0.,1.87160071208306));
#373=CARTESIAN_POINT('',(0.0454545454545454,0.,-1.87160071208306));
#374=CARTESIAN_POINT('',(0.0454545454545454,3.74320142416612,-1.87160071208306));
#375=CARTESIAN_POINT('',(0.0454545454545454,3.74320142416612,1.87160071208306));
#376=CARTESIAN_POINT('',(0.0454545454545454,0.,1.87160071208306));
#377=CARTESIAN_POINT('',(0.0454545454545454,-3.74320142416612,1.87160071208306));
#378=CARTESIAN_POINT('',(0.0454545454545454,-3.74320142416612,-1.87160071208306));
#379=CARTESIAN_POINT('',(0.0454545454545454,0.,-1.87160071208306));
#380=CARTESIAN_POINT('',(0.342332545824545,0.,-1.51018283395499));
#381=CARTESIAN_POINT('',(0.342332545824545,3.02036566790998,-1.51018283395499));
#382=CARTESIAN_POINT('',(0.342332545824545,3.02036566790998,1.51018283395499));
#383=CARTESIAN_POINT('',(0.342332545824545,0.,1.51018283395499));
#384=CARTESIAN_POINT('',(0.342332545824545,-3.02036566790998,1.51018283395499));
#385=CARTESIAN_POINT('',(0.342332545824545,-3.02036566790998,-1.51018283395499));
#386=CARTESIAN_POINT('',(0.342332545824545,0.,-1.51018283395499));
#387=CARTESIAN_POINT('',(0.499999999999999,0.,-1.0698415985158));
#388=CARTESIAN_POINT('',(0.499999999999999,2.13968319703159,-1.0698415985158));
#389=CARTESIAN_POINT('',(0.499999999999999,2.13968319703159,1.0698415985158));
#390=CARTESIAN_POINT('',(0.499999999999999,0.,1.0698415985158));
#391=CARTESIAN_POINT('',(0.499999999999999,-2.13968319703159,1.0698415985158));
#392=CARTESIAN_POINT('',(0.499999999999999,-2.13968319703159,-1.0698415985158));
#393=CARTESIAN_POINT('',(0.499999999999999,0.,-1.0698415985158));
#394=CARTESIAN_POINT('',(0.5,0.,-0.602124344467705));
#395=CARTESIAN_POINT('',(0.5,1.20424868893541,-0.602124344467705));
#396=CARTESIAN_POINT('',(0.5,1.20424868893541,0.602124344467705));
#397=CARTESIAN_POINT('',(0.5,0.,0.602124344467705));
#398=CARTESIAN_POINT('',(0.5,-1.20424868893541,0.602124344467705));
#399=CARTESIAN_POINT('',(0.5,-1.20424868893541,-0.602124344467705));
#400=CARTESIAN_POINT('',(0.5,0.,-0.602124344467705));
#401=CARTESIAN_POINT('',(1.53703703703704,0.,0.));
#402=CARTESIAN_POINT('',(1.53703703703704,0.,1.86106176499845));
#403=CARTESIAN_POINT('',(2.,0.,0.));
#404=CARTESIAN_POINT('',(2.,0.,-0.411758446248584));
#405=CARTESIAN_POINT('',(2.,0.,-0.411758446248584));
#406=CARTESIAN_POINT('',(2.,0.823516892497168,-0.411758446248584));
#407=CARTESIAN_POINT('',(2.,0.823516892497168,0.411758446248584));
#408=CARTESIAN_POINT('',(2.,0.,0.411758446248584));
#409=CARTESIAN_POINT('',(2.,-0.823516892497168,0.411758446248584));
#410=CARTESIAN_POINT('',(2.,-0.823516892497168,-0.411758446248584));
#411=CARTESIAN_POINT('',(2.,0.,-0.411758446248584));
#412=CARTESIAN_POINT('',(2.,0.,-0.935465311031756));
#413=CARTESIAN_POINT('',(2.,1.87093062206351,-0.935465311031756));
#414=CARTESIAN_POINT('',(2.,1.87093062206351,0.935465311031756));
#415=CARTESIAN_POINT('',(2.,0.,0.935465311031756));
#416=CARTESIAN_POINT('',(2.,-1.87093062206351,0.935465311031756));
#417=CARTESIAN_POINT('',(2.,-1.87093062206351,-0.935465311031756));
#418=CARTESIAN_POINT('',(2.,0.,-0.935465311031756));
#419=CARTESIAN_POINT('',(1.84064107590997,0.,-1.4343376529529));
#420=CARTESIAN_POINT('',(1.84064107590997,2.8686753059058,-1.4343376529529));
#421=CARTESIAN_POINT('',(1.84064107590997,2.8686753059058,1.4343376529529));
#422=CARTESIAN_POINT('',(1.84064107590997,0.,1.4343376529529));
#423=CARTESIAN_POINT('',(1.84064107590997,-2.8686753059058,1.4343376529529));
#424=CARTESIAN_POINT('',(1.84064107590997,-2.8686753059058,-1.4343376529529));
#425=CARTESIAN_POINT('',(1.84064107590997,0.,-1.4343376529529));
#426=CARTESIAN_POINT('',(1.53703703703704,0.,-1.86106176499845));
#427=CARTESIAN_POINT('',(1.53703703703704,3.7221235299969,-1.86106176499845));
#428=CARTESIAN_POINT('',(1.53703703703704,3.7221235299969,1.86106176499845));
#429=CARTESIAN_POINT('',(1.53703703703704,0.,1.86106176499845));
#430=CARTESIAN_POINT('',(1.53703703703704,-3.7221235299969,1.86106176499845));
#431=CARTESIAN_POINT('',(1.53703703703704,-3.7221235299969,-1.86106176499845));
#432=CARTESIAN_POINT('',(1.53703703703704,0.,-1.86106176499845));
#433=CARTESIAN_POINT('',(2.,0.,0.));
#434=CARTESIAN_POINT('',(1.,0.,0.));
#435=CARTESIAN_POINT('',(0.5,0.,0.));
#436=CARTESIAN_POINT('',(7.77474142542125,1.0842021724855E-016,1.35525271560688E-017));
#437=CARTESIAN_POINT('',(2.,2.16840434497101E-016,2.71050543121376E-017));
#438=CARTESIAN_POINT('',(0.2,0.,0.));
#439=CARTESIAN_POINT('',(1.7,0.,0.));
#440=MECHANICAL_DESIGN_GEOMETRIC_PRESENTATION_REPRESENTATION('',(#32),#441);
#441=(
GEOMETRIC_REPRESENTATION_CONTEXT(3)
GLOBAL_UNCERTAINTY_ASSIGNED_CONTEXT((#442))
GLOBAL_UNIT_ASSIGNED_CONTEXT((#448,#444,#443))
REPRESENTATION_CONTEXT('02_0054_000_001_02','TOP_LEVEL_ASSEMBLY_PART')
);
#442=UNCERTAINTY_MEASURE_WITH_UNIT(LENGTH_MEASURE(0.0254),#448,
'DISTANCE_ACCURACY_VALUE','Maximum Tolerance applied to model');
#443=(
NAMED_UNIT(*)
SI_UNIT($,.STERADIAN.)
SOLID_ANGLE_UNIT()
);
#444=(
CONVERSION_BASED_UNIT('DEGREE',#446)
NAMED_UNIT(#445)
PLANE_ANGLE_UNIT()
);
#445=DIMENSIONAL_EXPONENTS(0.,0.,0.,0.,0.,0.,0.);
#446=PLANE_ANGLE_MEASURE_WITH_UNIT(PLANE_ANGLE_MEASURE(0.0174532925),#447);
#447=(
NAMED_UNIT(*)
PLANE_ANGLE_UNIT()
SI_UNIT($,.RADIAN.)
);
#448=(
LENGTH_UNIT()
NAMED_UNIT(*)
SI_UNIT(.MILLI.,.METRE.)
);
ENDSEC;
END-ISO-10303-21;
